ISO-10303-21;
HEADER;
FILE_DESCRIPTION (( 'STEP AP203' ),
    '1' );
FILE_NAME ('b7ea.STEP',
    '2022-07-07T17:29:22',
    ( '' ),
    ( '' ),
    'SwSTEP 2.0',
    'SolidWorks 2019',
    '' );
FILE_SCHEMA (( 'CONFIG_CONTROL_DESIGN' ));
ENDSEC;

DATA;
#1 = FACE_OUTER_BOUND ( 'NONE', #139, .T. ) ;
#2 = PERSON_AND_ORGANIZATION_ROLE ( 'design_supplier' ) ;
#3 = AXIS2_PLACEMENT_3D ( 'NONE', #48, #130, #237 ) ;
#4 = CARTESIAN_POINT ( 'NONE',  ( 0.000000000000000000, 0.000000000000000000, 5.000000000000000000 ) ) ;
#5 =( LENGTH_UNIT ( ) NAMED_UNIT ( * ) SI_UNIT ( .MILLI., .METRE. ) );
#6 = DATE_AND_TIME ( #189, #83 ) ;
#7 = PERSON_AND_ORGANIZATION_ROLE ( 'design_owner' ) ;
#8 = DIRECTION ( 'NONE',  ( 1.000000000000000000, 0.000000000000000000, 0.000000000000000000 ) ) ;
#9 = ADVANCED_FACE ( 'NONE', ( #37 ), #234, .T. ) ;
#10 = PERSON_AND_ORGANIZATION ( #188, #246 ) ;
#11 = VERTEX_POINT ( 'NONE', #98 ) ;
#12 = DATE_AND_TIME ( #41, #215 ) ;
#13 = FACE_BOUND ( 'NONE', #214, .T. ) ;
#14 = APPROVAL_DATE_TIME ( #102, #170 ) ;
#15 = AXIS2_PLACEMENT_3D ( 'NONE', #123, #127, #43 ) ;
#16 = CARTESIAN_POINT ( 'NONE',  ( 7.000000000000000000, 8.572527594031473190E-16, 5.000000000000000000 ) ) ;
#17 = COORDINATED_UNIVERSAL_TIME_OFFSET ( 1, 0, .AHEAD. ) ;
#18 = CARTESIAN_POINT ( 'NONE',  ( 0.000000000000000000, 0.000000000000000000, 0.000000000000000000 ) ) ;
#19 = APPLICATION_CONTEXT ( 'configuration controlled 3d designs of mechanical parts and assemblies' ) ;
#20 = CARTESIAN_POINT ( 'NONE',  ( 0.000000000000000000, 0.000000000000000000, 105.0000000000000142 ) ) ;
#21 = CC_DESIGN_PERSON_AND_ORGANIZATION_ASSIGNMENT ( #225, #126, ( #69 ) ) ;
#22 = APPROVAL_PERSON_ORGANIZATION ( #171, #28, #134 ) ;
#23 = CIRCLE ( 'NONE', #29, 4.500000000000000000 ) ;
#24 = EDGE_CURVE ( 'NONE', #59, #11, #23, .T. ) ;
#25 = CARTESIAN_POINT ( 'NONE',  ( 0.000000000000000000, 0.000000000000000000, 0.000000000000000000 ) ) ;
#26 = PERSON_AND_ORGANIZATION_ROLE ( 'creator' ) ;
#27 = CYLINDRICAL_SURFACE ( 'NONE', #145, 7.000000000000000000 ) ;
#28 = APPROVAL ( #245, 'NEURÈENÝ' ) ;
#29 = AXIS2_PLACEMENT_3D ( 'NONE', #231, #79, #8 ) ;
#30 = DIRECTION ( 'NONE',  ( -0.000000000000000000, -0.000000000000000000, -1.000000000000000000 ) ) ;
#31 = ADVANCED_BREP_SHAPE_REPRESENTATION ( 'b7ea', ( #53, #131 ), #32 ) ;
#32 =( GEOMETRIC_REPRESENTATION_CONTEXT ( 3 ) GLOBAL_UNCERTAINTY_ASSIGNED_CONTEXT ( ( #149 ) ) GLOBAL_UNIT_ASSIGNED_CONTEXT ( ( #5, #110, #155 ) ) REPRESENTATION_CONTEXT ( 'NONE', 'WORKASPACE' ) );
#33 = VERTEX_POINT ( 'NONE', #61 ) ;
#34 = ORIENTED_EDGE ( 'NONE', *, *, #76, .T. ) ;
#35 = CC_DESIGN_APPROVAL ( #28, ( #230 ) ) ;
#36 = EDGE_CURVE ( 'NONE', #80, #33, #198, .T. ) ;
#37 = FACE_OUTER_BOUND ( 'NONE', #193, .T. ) ;
#38 = ORIENTED_EDGE ( 'NONE', *, *, #24, .T. ) ;
#39 = DESIGN_CONTEXT ( 'detailed design', #75, 'design' ) ;
#40 = DIRECTION ( 'NONE',  ( 1.000000000000000000, 0.000000000000000000, -0.000000000000000000 ) ) ;
#41 = CALENDAR_DATE ( 2022, 7, 7 ) ;
#42 = DIRECTION ( 'NONE',  ( 1.000000000000000000, 0.000000000000000000, 0.000000000000000000 ) ) ;
#43 = DIRECTION ( 'NONE',  ( 1.000000000000000000, 0.000000000000000000, 0.000000000000000000 ) ) ;
#44 = CALENDAR_DATE ( 2022, 7, 7 ) ;
#45 = PLANE ( 'NONE',  #206 ) ;
#46 = LOCAL_TIME ( 19, 29, 22.00000000000000000, #17 ) ;
#47 = PERSON_AND_ORGANIZATION ( #188, #246 ) ;
#48 = CARTESIAN_POINT ( 'NONE',  ( 0.000000000000000000, 0.000000000000000000, 105.0000000000000142 ) ) ;
#49 = APPROVAL_PERSON_ORGANIZATION ( #47, #220, #70 ) ;
#50 = CALENDAR_DATE ( 2022, 7, 7 ) ;
#51 = COORDINATED_UNIVERSAL_TIME_OFFSET ( 1, 0, .AHEAD. ) ;
#52 = CARTESIAN_POINT ( 'NONE',  ( -7.000000000000000000, 0.000000000000000000, 0.000000000000000000 ) ) ;
#53 = MANIFOLD_SOLID_BREP ( 'Pøidat vysunutím3', #180 ) ;
#54 = VECTOR ( 'NONE', #239, 1000.000000000000000 ) ;
#55 = ORIENTED_EDGE ( 'NONE', *, *, #169, .T. ) ;
#56 = AXIS2_PLACEMENT_3D ( 'NONE', #143, #157, #217 ) ;
#57 = ORIENTED_EDGE ( 'NONE', *, *, #107, .F. ) ;
#58 = EDGE_LOOP ( 'NONE', ( #97, #232, #34, #82 ) ) ;
#59 = VERTEX_POINT ( 'NONE', #255 ) ;
#60 = CIRCLE ( 'NONE', #144, 7.000000000000000000 ) ;
#61 = CARTESIAN_POINT ( 'NONE',  ( -7.000000000000000000, 0.000000000000000000, 5.000000000000000000 ) ) ;
#62 = ADVANCED_FACE ( 'NONE', ( #152 ), #125, .T. ) ;
#63 = CARTESIAN_POINT ( 'NONE',  ( 0.000000000000000000, 0.000000000000000000, 5.000000000000000000 ) ) ;
#64 = DATE_TIME_ROLE ( 'classification_date' ) ;
#65 = CARTESIAN_POINT ( 'NONE',  ( 7.000000000000000000, 8.572527594031473190E-16, 5.000000000000000000 ) ) ;
#66 = CC_DESIGN_PERSON_AND_ORGANIZATION_ASSIGNMENT ( #164, #128, ( #230 ) ) ;
#67 = FACE_OUTER_BOUND ( 'NONE', #58, .T. ) ;
#68 = DIRECTION ( 'NONE',  ( 0.000000000000000000, 0.000000000000000000, 1.000000000000000000 ) ) ;
#69 = SECURITY_CLASSIFICATION ( '', '', #86 ) ;
#70 = APPROVAL_ROLE ( '' ) ;
#71 = AXIS2_PLACEMENT_3D ( 'NONE', #20, #221, #40 ) ;
#72 = AXIS2_PLACEMENT_3D ( 'NONE', #109, #184, #89 ) ;
#73 = APPLICATION_PROTOCOL_DEFINITION ( 'international standard', 'config_control_design', 1994, #19 ) ;
#74 = CARTESIAN_POINT ( 'NONE',  ( 0.000000000000000000, 0.000000000000000000, 5.000000000000000000 ) ) ;
#75 = APPLICATION_CONTEXT ( 'configuration controlled 3d designs of mechanical parts and assemblies' ) ;
#76 = EDGE_CURVE ( 'NONE', #59, #161, #196, .T. ) ;
#77 = VERTEX_POINT ( 'NONE', #166 ) ;
#78 = EDGE_CURVE ( 'NONE', #11, #59, #92, .T. ) ;
#79 = DIRECTION ( 'NONE',  ( 0.000000000000000000, 0.000000000000000000, 1.000000000000000000 ) ) ;
#80 = VERTEX_POINT ( 'NONE', #65 ) ;
#81 = CC_DESIGN_APPROVAL ( #170, ( #69 ) ) ;
#82 = ORIENTED_EDGE ( 'NONE', *, *, #107, .T. ) ;
#83 = LOCAL_TIME ( 19, 29, 22.00000000000000000, #115 ) ;
#84 = CC_DESIGN_DATE_AND_TIME_ASSIGNMENT ( #6, #91, ( #94 ) ) ;
#85 = DIRECTION ( 'NONE',  ( -0.000000000000000000, -0.000000000000000000, -1.000000000000000000 ) ) ;
#86 = SECURITY_CLASSIFICATION_LEVEL ( 'unclassified' ) ;
#87 = FACE_OUTER_BOUND ( 'NONE', #140, .T. ) ;
#88 = EDGE_CURVE ( 'NONE', #250, #77, #60, .T. ) ;
#89 = DIRECTION ( 'NONE',  ( 1.000000000000000000, 0.000000000000000000, 0.000000000000000000 ) ) ;
#90 = CARTESIAN_POINT ( 'NONE',  ( 0.000000000000000000, 0.000000000000000000, 0.000000000000000000 ) ) ;
#91 = DATE_TIME_ROLE ( 'creation_date' ) ;
#92 = CIRCLE ( 'NONE', #3, 4.500000000000000000 ) ;
#93 = DIRECTION ( 'NONE',  ( -1.000000000000000000, 0.000000000000000000, 0.000000000000000000 ) ) ;
#94 = PRODUCT_DEFINITION ( 'NEZNÁMÝ', '', #230, #39 ) ;
#95 = VECTOR ( 'NONE', #85, 1000.000000000000000 ) ;
#96 = AXIS2_PLACEMENT_3D ( 'NONE', #187, #30, #167 ) ;
#97 = ORIENTED_EDGE ( 'NONE', *, *, #132, .F. ) ;
#98 = CARTESIAN_POINT ( 'NONE',  ( 4.500000000000000000, 5.510910596163088569E-16, 105.0000000000000142 ) ) ;
#99 = ORIENTED_EDGE ( 'NONE', *, *, #202, .F. ) ;
#100 = PERSON_AND_ORGANIZATION ( #188, #246 ) ;
#101 = ORIENTED_EDGE ( 'NONE', *, *, #142, .T. ) ;
#102 = DATE_AND_TIME ( #195, #108 ) ;
#103 = CIRCLE ( 'NONE', #112, 4.500000000000000000 ) ;
#104 = DIRECTION ( 'NONE',  ( 1.000000000000000000, 0.000000000000000000, -0.000000000000000000 ) ) ;
#105 = CIRCLE ( 'NONE', #72, 7.000000000000000000 ) ;
#106 = CARTESIAN_POINT ( 'NONE',  ( -4.500000000000000000, 0.000000000000000000, 5.000000000000000000 ) ) ;
#107 = EDGE_CURVE ( 'NONE', #161, #121, #103, .T. ) ;
#108 = LOCAL_TIME ( 19, 29, 22.00000000000000000, #201 ) ;
#109 = CARTESIAN_POINT ( 'NONE',  ( 0.000000000000000000, 0.000000000000000000, 5.000000000000000000 ) ) ;
#110 =( NAMED_UNIT ( * ) PLANE_ANGLE_UNIT ( ) SI_UNIT ( $, .RADIAN. ) );
#111 = DIRECTION ( 'NONE',  ( 0.000000000000000000, 0.000000000000000000, 1.000000000000000000 ) ) ;
#112 = AXIS2_PLACEMENT_3D ( 'NONE', #63, #241, #147 ) ;
#113 = PRODUCT_DEFINITION_SHAPE ( 'NONE', 'NONE',  #94 ) ;
#114 = APPROVAL_STATUS ( 'not_yet_approved' ) ;
#115 = COORDINATED_UNIVERSAL_TIME_OFFSET ( 1, 0, .AHEAD. ) ;
#116 = ADVANCED_FACE ( 'NONE', ( #13, #1 ), #183, .T. ) ;
#117 = DIRECTION ( 'NONE',  ( 1.000000000000000000, 0.000000000000000000, 0.000000000000000000 ) ) ;
#118 = ORIENTED_EDGE ( 'NONE', *, *, #169, .F. ) ;
#119 = EDGE_LOOP ( 'NONE', ( #158, #118, #176, #216 ) ) ;
#120 = ORIENTED_EDGE ( 'NONE', *, *, #132, .T. ) ;
#121 = VERTEX_POINT ( 'NONE', #181 ) ;
#122 = ADVANCED_FACE ( 'NONE', ( #254 ), #45, .F. ) ;
#123 = CARTESIAN_POINT ( 'NONE',  ( 0.000000000000000000, 0.000000000000000000, 0.000000000000000000 ) ) ;
#124 = VECTOR ( 'NONE', #186, 1000.000000000000000 ) ;
#125 = CYLINDRICAL_SURFACE ( 'NONE', #240, 7.000000000000000000 ) ;
#126 = PERSON_AND_ORGANIZATION_ROLE ( 'classification_officer' ) ;
#127 = DIRECTION ( 'NONE',  ( 0.000000000000000000, 0.000000000000000000, 1.000000000000000000 ) ) ;
#128 = PERSON_AND_ORGANIZATION_ROLE ( 'creator' ) ;
#129 = DIRECTION ( 'NONE',  ( -0.000000000000000000, -0.000000000000000000, -1.000000000000000000 ) ) ;
#130 = DIRECTION ( 'NONE',  ( 0.000000000000000000, 0.000000000000000000, 1.000000000000000000 ) ) ;
#131 = AXIS2_PLACEMENT_3D ( 'NONE', #25, #205, #173 ) ;
#132 = EDGE_CURVE ( 'NONE', #11, #121, #222, .T. ) ;
#133 = DATE_AND_TIME ( #50, #236 ) ;
#134 = APPROVAL_ROLE ( '' ) ;
#135 = CARTESIAN_POINT ( 'NONE',  ( 0.000000000000000000, 0.000000000000000000, 5.000000000000000000 ) ) ;
#136 = ADVANCED_FACE ( 'NONE', ( #87 ), #165, .T. ) ;
#137 = ORIENTED_EDGE ( 'NONE', *, *, #202, .T. ) ;
#138 = CIRCLE ( 'NONE', #154, 4.500000000000000000 ) ;
#139 = EDGE_LOOP ( 'NONE', ( #55, #159 ) ) ;
#140 = EDGE_LOOP ( 'NONE', ( #38, #194 ) ) ;
#141 = CC_DESIGN_DATE_AND_TIME_ASSIGNMENT ( #12, #64, ( #69 ) ) ;
#142 = EDGE_CURVE ( 'NONE', #77, #250, #212, .T. ) ;
#143 = CARTESIAN_POINT ( 'NONE',  ( 0.000000000000000000, 0.000000000000000000, 105.0000000000000142 ) ) ;
#144 = AXIS2_PLACEMENT_3D ( 'NONE', #90, #111, #227 ) ;
#145 = AXIS2_PLACEMENT_3D ( 'NONE', #74, #247, #93 ) ;
#146 = SHAPE_DEFINITION_REPRESENTATION ( #113, #31 ) ;
#147 = DIRECTION ( 'NONE',  ( 1.000000000000000000, 0.000000000000000000, 0.000000000000000000 ) ) ;
#148 = CARTESIAN_POINT ( 'NONE',  ( 0.000000000000000000, 0.000000000000000000, 5.000000000000000000 ) ) ;
#149 = UNCERTAINTY_MEASURE_WITH_UNIT (LENGTH_MEASURE( 1.000000000000000082E-05 ), #5, 'distance_accuracy_value', 'NONE');
#150 = DIRECTION ( 'NONE',  ( 0.000000000000000000, 0.000000000000000000, 1.000000000000000000 ) ) ;
#151 = DIRECTION ( 'NONE',  ( 0.000000000000000000, 0.000000000000000000, 1.000000000000000000 ) ) ;
#152 = FACE_OUTER_BOUND ( 'NONE', #233, .T. ) ;
#153 = EDGE_CURVE ( 'NONE', #33, #250, #163, .T. ) ;
#154 = AXIS2_PLACEMENT_3D ( 'NONE', #135, #151, #117 ) ;
#155 =( NAMED_UNIT ( * ) SI_UNIT ( $, .STERADIAN. ) SOLID_ANGLE_UNIT ( ) );
#156 = MECHANICAL_CONTEXT ( 'NONE', #19, 'mechanical' ) ;
#157 = DIRECTION ( 'NONE',  ( -0.000000000000000000, -0.000000000000000000, -1.000000000000000000 ) ) ;
#158 = ORIENTED_EDGE ( 'NONE', *, *, #160, .F. ) ;
#159 = ORIENTED_EDGE ( 'NONE', *, *, #36, .T. ) ;
#160 = EDGE_CURVE ( 'NONE', #80, #77, #204, .T. ) ;
#161 = VERTEX_POINT ( 'NONE', #106 ) ;
#162 = COORDINATED_UNIVERSAL_TIME_OFFSET ( 1, 0, .AHEAD. ) ;
#163 = LINE ( 'NONE', #200, #172 ) ;
#164 = PERSON_AND_ORGANIZATION ( #188, #246 ) ;
#165 = PLANE ( 'NONE',  #71 ) ;
#166 = CARTESIAN_POINT ( 'NONE',  ( 7.000000000000000000, 8.572527594031473190E-16, 0.000000000000000000 ) ) ;
#167 = DIRECTION ( 'NONE',  ( -1.000000000000000000, 0.000000000000000000, 0.000000000000000000 ) ) ;
#168 = DIRECTION ( 'NONE',  ( -0.000000000000000000, -0.000000000000000000, -1.000000000000000000 ) ) ;
#169 = EDGE_CURVE ( 'NONE', #33, #80, #105, .T. ) ;
#170 = APPROVAL ( #253, 'NEURÈENÝ' ) ;
#171 = PERSON_AND_ORGANIZATION ( #188, #246 ) ;
#172 = VECTOR ( 'NONE', #129, 1000.000000000000000 ) ;
#173 = DIRECTION ( 'NONE',  ( 1.000000000000000000, 0.000000000000000000, 0.000000000000000000 ) ) ;
#174 = CC_DESIGN_PERSON_AND_ORGANIZATION_ASSIGNMENT ( #209, #26, ( #94 ) ) ;
#175 = ORIENTED_EDGE ( 'NONE', *, *, #160, .T. ) ;
#176 = ORIENTED_EDGE ( 'NONE', *, *, #153, .T. ) ;
#177 = ORIENTED_EDGE ( 'NONE', *, *, #36, .F. ) ;
#178 = APPROVAL_PERSON_ORGANIZATION ( #100, #170, #182 ) ;
#179 = ORIENTED_EDGE ( 'NONE', *, *, #88, .F. ) ;
#180 = CLOSED_SHELL ( 'NONE', ( #9, #62, #226, #116, #122, #185, #136 ) ) ;
#181 = CARTESIAN_POINT ( 'NONE',  ( 4.500000000000000000, 5.510910596163088569E-16, 5.000000000000000000 ) ) ;
#182 = APPROVAL_ROLE ( '' ) ;
#183 = PLANE ( 'NONE',  #244 ) ;
#184 = DIRECTION ( 'NONE',  ( 0.000000000000000000, 0.000000000000000000, 1.000000000000000000 ) ) ;
#185 = ADVANCED_FACE ( 'NONE', ( #67 ), #211, .T. ) ;
#186 = DIRECTION ( 'NONE',  ( -0.000000000000000000, -0.000000000000000000, -1.000000000000000000 ) ) ;
#187 = CARTESIAN_POINT ( 'NONE',  ( 0.000000000000000000, 0.000000000000000000, 105.0000000000000142 ) ) ;
#188 = PERSON ( 'NEURÈENÝ', 'NEURÈENÝ', 'NEURÈENÝ', ('NEURÈENÝ'), ('NEURÈENÝ'), ('NEURÈENÝ') ) ;
#189 = CALENDAR_DATE ( 2022, 7, 7 ) ;
#190 = CC_DESIGN_APPROVAL ( #220, ( #94 ) ) ;
#191 = EDGE_LOOP ( 'NONE', ( #179, #248 ) ) ;
#192 = ORIENTED_EDGE ( 'NONE', *, *, #76, .F. ) ;
#193 = EDGE_LOOP ( 'NONE', ( #252, #120, #137, #192 ) ) ;
#194 = ORIENTED_EDGE ( 'NONE', *, *, #78, .T. ) ;
#195 = CALENDAR_DATE ( 2022, 7, 7 ) ;
#196 = LINE ( 'NONE', #199, #54 ) ;
#197 = APPROVAL_DATE_TIME ( #219, #28 ) ;
#198 = CIRCLE ( 'NONE', #223, 7.000000000000000000 ) ;
#199 = CARTESIAN_POINT ( 'NONE',  ( -4.500000000000000000, 0.000000000000000000, 105.0000000000000142 ) ) ;
#200 = CARTESIAN_POINT ( 'NONE',  ( -7.000000000000000000, 0.000000000000000000, 5.000000000000000000 ) ) ;
#201 = COORDINATED_UNIVERSAL_TIME_OFFSET ( 1, 0, .AHEAD. ) ;
#202 = EDGE_CURVE ( 'NONE', #121, #161, #138, .T. ) ;
#203 = FACE_OUTER_BOUND ( 'NONE', #119, .T. ) ;
#204 = LINE ( 'NONE', #16, #124 ) ;
#205 = DIRECTION ( 'NONE',  ( 0.000000000000000000, 0.000000000000000000, 1.000000000000000000 ) ) ;
#206 = AXIS2_PLACEMENT_3D ( 'NONE', #18, #68, #207 ) ;
#207 = DIRECTION ( 'NONE',  ( 1.000000000000000000, 0.000000000000000000, -0.000000000000000000 ) ) ;
#208 = PRODUCT ( 'b7ea', 'b7ea', '', ( #156 ) ) ;
#209 = PERSON_AND_ORGANIZATION ( #188, #246 ) ;
#210 = APPROVAL_DATE_TIME ( #133, #220 ) ;
#211 = CYLINDRICAL_SURFACE ( 'NONE', #96, 4.500000000000000000 ) ;
#212 = CIRCLE ( 'NONE', #15, 7.000000000000000000 ) ;
#213 = CARTESIAN_POINT ( 'NONE',  ( 0.000000000000000000, 0.000000000000000000, 5.000000000000000000 ) ) ;
#214 = EDGE_LOOP ( 'NONE', ( #57, #99 ) ) ;
#215 = LOCAL_TIME ( 19, 29, 22.00000000000000000, #162 ) ;
#216 = ORIENTED_EDGE ( 'NONE', *, *, #88, .T. ) ;
#217 = DIRECTION ( 'NONE',  ( -1.000000000000000000, 0.000000000000000000, 0.000000000000000000 ) ) ;
#218 = CC_DESIGN_PERSON_AND_ORGANIZATION_ASSIGNMENT ( #10, #2, ( #230 ) ) ;
#219 = DATE_AND_TIME ( #44, #46 ) ;
#220 = APPROVAL ( #114, 'NEURÈENÝ' ) ;
#221 = DIRECTION ( 'NONE',  ( 0.000000000000000000, 0.000000000000000000, 1.000000000000000000 ) ) ;
#222 = LINE ( 'NONE', #224, #95 ) ;
#223 = AXIS2_PLACEMENT_3D ( 'NONE', #213, #150, #42 ) ;
#224 = CARTESIAN_POINT ( 'NONE',  ( 4.500000000000000000, 5.510910596163088569E-16, 105.0000000000000142 ) ) ;
#225 = PERSON_AND_ORGANIZATION ( #188, #246 ) ;
#226 = ADVANCED_FACE ( 'NONE', ( #203 ), #27, .T. ) ;
#227 = DIRECTION ( 'NONE',  ( 1.000000000000000000, 0.000000000000000000, 0.000000000000000000 ) ) ;
#228 = DIRECTION ( 'NONE',  ( -1.000000000000000000, 0.000000000000000000, 0.000000000000000000 ) ) ;
#229 = PERSON_AND_ORGANIZATION ( #188, #246 ) ;
#230 = PRODUCT_DEFINITION_FORMATION_WITH_SPECIFIED_SOURCE ( 'LIBOVOLNÝ', '', #208, .NOT_KNOWN. ) ;
#231 = CARTESIAN_POINT ( 'NONE',  ( 0.000000000000000000, 0.000000000000000000, 105.0000000000000142 ) ) ;
#232 = ORIENTED_EDGE ( 'NONE', *, *, #24, .F. ) ;
#233 = EDGE_LOOP ( 'NONE', ( #177, #175, #101, #249 ) ) ;
#234 = CYLINDRICAL_SURFACE ( 'NONE', #56, 4.500000000000000000 ) ;
#235 = CC_DESIGN_PERSON_AND_ORGANIZATION_ASSIGNMENT ( #229, #7, ( #208 ) ) ;
#236 = LOCAL_TIME ( 19, 29, 22.00000000000000000, #51 ) ;
#237 = DIRECTION ( 'NONE',  ( 1.000000000000000000, 0.000000000000000000, 0.000000000000000000 ) ) ;
#238 = PRODUCT_RELATED_PRODUCT_CATEGORY ( 'detail', '', ( #208 ) ) ;
#239 = DIRECTION ( 'NONE',  ( -0.000000000000000000, -0.000000000000000000, -1.000000000000000000 ) ) ;
#240 = AXIS2_PLACEMENT_3D ( 'NONE', #4, #168, #228 ) ;
#241 = DIRECTION ( 'NONE',  ( 0.000000000000000000, 0.000000000000000000, 1.000000000000000000 ) ) ;
#242 = DIRECTION ( 'NONE',  ( 0.000000000000000000, 0.000000000000000000, 1.000000000000000000 ) ) ;
#243 = APPLICATION_PROTOCOL_DEFINITION ( 'international standard', 'config_control_design', 1994, #75 ) ;
#244 = AXIS2_PLACEMENT_3D ( 'NONE', #148, #242, #104 ) ;
#245 = APPROVAL_STATUS ( 'not_yet_approved' ) ;
#246 = ORGANIZATION ( 'NEURÈENÝ', 'NEURÈENÝ', '' ) ;
#247 = DIRECTION ( 'NONE',  ( -0.000000000000000000, -0.000000000000000000, -1.000000000000000000 ) ) ;
#248 = ORIENTED_EDGE ( 'NONE', *, *, #142, .F. ) ;
#249 = ORIENTED_EDGE ( 'NONE', *, *, #153, .F. ) ;
#250 = VERTEX_POINT ( 'NONE', #52 ) ;
#251 = CC_DESIGN_SECURITY_CLASSIFICATION ( #69, ( #230 ) ) ;
#252 = ORIENTED_EDGE ( 'NONE', *, *, #78, .F. ) ;
#253 = APPROVAL_STATUS ( 'not_yet_approved' ) ;
#254 = FACE_OUTER_BOUND ( 'NONE', #191, .T. ) ;
#255 = CARTESIAN_POINT ( 'NONE',  ( -4.500000000000000000, 0.000000000000000000, 105.0000000000000142 ) ) ;
ENDSEC;
END-ISO-10303-21;
