ISO-10303-21;
HEADER;
FILE_DESCRIPTION (( 'STEP AP203' ),
    '1' );
FILE_NAME ('ed22.STEP',
    '2023-02-13T12:28:34',
    ( '' ),
    ( '' ),
    'SwSTEP 2.0',
    'SolidWorks 2019',
    '' );
FILE_SCHEMA (( 'CONFIG_CONTROL_DESIGN' ));
ENDSEC;

DATA;
#1 = CARTESIAN_POINT ( 'NONE',  ( -5.500000000000000000, 0.000000000000000000, 400.0000000000000000 ) ) ;
#2 = DATE_TIME_ROLE ( 'creation_date' ) ;
#3 = APPROVAL_PERSON_ORGANIZATION ( #176, #162, #86 ) ;
#4 = UNCERTAINTY_MEASURE_WITH_UNIT (LENGTH_MEASURE( 1.000000000000000082E-05 ), #20, 'distance_accuracy_value', 'NONE');
#5 = CALENDAR_DATE ( 2023, 13, 2 ) ;
#6 = PERSON_AND_ORGANIZATION ( #96, #71 ) ;
#7 = ORIENTED_EDGE ( 'NONE', *, *, #227, .T. ) ;
#8 = CIRCLE ( 'NONE', #134, 8.000000000000000000 ) ;
#9 = VERTEX_POINT ( 'NONE', #120 ) ;
#10 = PERSON_AND_ORGANIZATION ( #96, #71 ) ;
#11 = EDGE_LOOP ( 'NONE', ( #221, #7, #204, #110 ) ) ;
#12 = APPLICATION_CONTEXT ( 'configuration controlled 3d designs of mechanical parts and assemblies' ) ;
#13 = DIRECTION ( 'NONE',  ( 0.000000000000000000, 0.000000000000000000, 1.000000000000000000 ) ) ;
#14 = CC_DESIGN_PERSON_AND_ORGANIZATION_ASSIGNMENT ( #60, #202, ( #41 ) ) ;
#15 = CARTESIAN_POINT ( 'NONE',  ( 0.000000000000000000, 0.000000000000000000, 5.000000000000000000 ) ) ;
#16 = DIRECTION ( 'NONE',  ( -0.000000000000000000, -0.000000000000000000, -1.000000000000000000 ) ) ;
#17 = CARTESIAN_POINT ( 'NONE',  ( 0.000000000000000000, 0.000000000000000000, 400.0000000000000000 ) ) ;
#18 = DIRECTION ( 'NONE',  ( 0.000000000000000000, 0.000000000000000000, 1.000000000000000000 ) ) ;
#19 = PERSON_AND_ORGANIZATION ( #96, #71 ) ;
#20 =( LENGTH_UNIT ( ) NAMED_UNIT ( * ) SI_UNIT ( .MILLI., .METRE. ) );
#21 = VECTOR ( 'NONE', #152, 1000.000000000000000 ) ;
#22 = ADVANCED_FACE ( 'NONE', ( #54 ), #81, .T. ) ;
#23 = DATE_AND_TIME ( #124, #223 ) ;
#24 = AXIS2_PLACEMENT_3D ( 'NONE', #163, #140, #159 ) ;
#25 = APPROVAL_STATUS ( 'not_yet_approved' ) ;
#26 = CARTESIAN_POINT ( 'NONE',  ( 0.000000000000000000, 0.000000000000000000, 0.000000000000000000 ) ) ;
#27 = APPROVAL ( #42, 'NEURÈENÝ' ) ;
#28 = CIRCLE ( 'NONE', #104, 5.500000000000000000 ) ;
#29 = DATE_AND_TIME ( #108, #144 ) ;
#30 = VERTEX_POINT ( 'NONE', #133 ) ;
#31 = ORIENTED_EDGE ( 'NONE', *, *, #61, .F. ) ;
#32 = AXIS2_PLACEMENT_3D ( 'NONE', #193, #34, #195 ) ;
#33 = ORIENTED_EDGE ( 'NONE', *, *, #145, .T. ) ;
#34 = DIRECTION ( 'NONE',  ( 0.000000000000000000, 0.000000000000000000, 1.000000000000000000 ) ) ;
#35 = CARTESIAN_POINT ( 'NONE',  ( 8.000000000000000000, 9.797174393178825657E-16, 5.000000000000000000 ) ) ;
#36 = MANIFOLD_SOLID_BREP ( 'Pøidat vysunutím3', #58 ) ;
#37 = CARTESIAN_POINT ( 'NONE',  ( 0.000000000000000000, 0.000000000000000000, 400.0000000000000000 ) ) ;
#38 = ADVANCED_FACE ( 'NONE', ( #228 ), #117, .T. ) ;
#39 = DIRECTION ( 'NONE',  ( 0.000000000000000000, 0.000000000000000000, 1.000000000000000000 ) ) ;
#40 = EDGE_CURVE ( 'NONE', #167, #69, #157, .T. ) ;
#41 = PRODUCT ( 'ed22', 'ed22', '', ( #64 ) ) ;
#42 = APPROVAL_STATUS ( 'not_yet_approved' ) ;
#43 = APPLICATION_PROTOCOL_DEFINITION ( 'international standard', 'config_control_design', 1994, #78 ) ;
#44 = DESIGN_CONTEXT ( 'detailed design', #78, 'design' ) ;
#45 = DIRECTION ( 'NONE',  ( 1.000000000000000000, 0.000000000000000000, 0.000000000000000000 ) ) ;
#46 = APPROVAL_ROLE ( '' ) ;
#47 = CC_DESIGN_SECURITY_CLASSIFICATION ( #238, ( #222 ) ) ;
#48 = ORIENTED_EDGE ( 'NONE', *, *, #40, .T. ) ;
#49 = CALENDAR_DATE ( 2023, 13, 2 ) ;
#50 = ORIENTED_EDGE ( 'NONE', *, *, #56, .F. ) ;
#51 = CARTESIAN_POINT ( 'NONE',  ( 5.500000000000000000, 6.735557395310441037E-16, 400.0000000000000000 ) ) ;
#52 = CC_DESIGN_APPROVAL ( #192, ( #238 ) ) ;
#53 = DIRECTION ( 'NONE',  ( 1.000000000000000000, 0.000000000000000000, 0.000000000000000000 ) ) ;
#54 = FACE_OUTER_BOUND ( 'NONE', #11, .T. ) ;
#55 = DIRECTION ( 'NONE',  ( -1.000000000000000000, 0.000000000000000000, 0.000000000000000000 ) ) ;
#56 = EDGE_CURVE ( 'NONE', #182, #235, #128, .T. ) ;
#57 = DIRECTION ( 'NONE',  ( -0.000000000000000000, -0.000000000000000000, -1.000000000000000000 ) ) ;
#58 = CLOSED_SHELL ( 'NONE', ( #65, #22, #38, #232, #249, #149, #168 ) ) ;
#59 = ADVANCED_BREP_SHAPE_REPRESENTATION ( 'ed22', ( #36, #171 ), #131 ) ;
#60 = PERSON_AND_ORGANIZATION ( #96, #71 ) ;
#61 = EDGE_CURVE ( 'NONE', #167, #207, #109, .T. ) ;
#62 = LOCAL_TIME ( 13, 28, 34.00000000000000000, #160 ) ;
#63 = DIRECTION ( 'NONE',  ( 1.000000000000000000, 0.000000000000000000, 0.000000000000000000 ) ) ;
#64 = MECHANICAL_CONTEXT ( 'NONE', #12, 'mechanical' ) ;
#65 = ADVANCED_FACE ( 'NONE', ( #173 ), #135, .T. ) ;
#66 = COORDINATED_UNIVERSAL_TIME_OFFSET ( 1, 0, .AHEAD. ) ;
#67 = APPROVAL_STATUS ( 'not_yet_approved' ) ;
#68 = EDGE_LOOP ( 'NONE', ( #148, #31, #48, #185 ) ) ;
#69 = VERTEX_POINT ( 'NONE', #253 ) ;
#70 = CIRCLE ( 'NONE', #161, 8.000000000000000000 ) ;
#71 = ORGANIZATION ( 'NEURÈENÝ', 'NEURÈENÝ', '' ) ;
#72 = DATE_AND_TIME ( #49, #247 ) ;
#73 = ORIENTED_EDGE ( 'NONE', *, *, #61, .T. ) ;
#74 = ORIENTED_EDGE ( 'NONE', *, *, #82, .F. ) ;
#75 = EDGE_CURVE ( 'NONE', #30, #69, #8, .T. ) ;
#76 = CARTESIAN_POINT ( 'NONE',  ( 8.000000000000000000, 9.797174393178825657E-16, 5.000000000000000000 ) ) ;
#77 = DIRECTION ( 'NONE',  ( -1.000000000000000000, 0.000000000000000000, 0.000000000000000000 ) ) ;
#78 = APPLICATION_CONTEXT ( 'configuration controlled 3d designs of mechanical parts and assemblies' ) ;
#79 = DIRECTION ( 'NONE',  ( -1.000000000000000000, 0.000000000000000000, 0.000000000000000000 ) ) ;
#80 = PRODUCT_DEFINITION_SHAPE ( 'NONE', 'NONE',  #220 ) ;
#81 = CYLINDRICAL_SURFACE ( 'NONE', #203, 8.000000000000000000 ) ;
#82 = EDGE_CURVE ( 'NONE', #235, #9, #230, .T. ) ;
#83 = DIRECTION ( 'NONE',  ( 1.000000000000000000, 0.000000000000000000, 0.000000000000000000 ) ) ;
#84 = CARTESIAN_POINT ( 'NONE',  ( 0.000000000000000000, 0.000000000000000000, 5.000000000000000000 ) ) ;
#85 = PLANE ( 'NONE',  #24 ) ;
#86 = APPROVAL_ROLE ( '' ) ;
#87 = APPROVAL_PERSON_ORGANIZATION ( #89, #27, #237 ) ;
#88 = CARTESIAN_POINT ( 'NONE',  ( 0.000000000000000000, 0.000000000000000000, 0.000000000000000000 ) ) ;
#89 = PERSON_AND_ORGANIZATION ( #96, #71 ) ;
#90 = COORDINATED_UNIVERSAL_TIME_OFFSET ( 1, 0, .AHEAD. ) ;
#91 = EDGE_CURVE ( 'NONE', #69, #30, #166, .T. ) ;
#92 = ORIENTED_EDGE ( 'NONE', *, *, #75, .F. ) ;
#93 = AXIS2_PLACEMENT_3D ( 'NONE', #214, #154, #53 ) ;
#94 = ORIENTED_EDGE ( 'NONE', *, *, #145, .F. ) ;
#95 = AXIS2_PLACEMENT_3D ( 'NONE', #26, #218, #164 ) ;
#96 = PERSON ( 'NEURÈENÝ', 'NEURÈENÝ', 'NEURÈENÝ', ('NEURÈENÝ'), ('NEURÈENÝ'), ('NEURÈENÝ') ) ;
#97 = DIRECTION ( 'NONE',  ( -1.000000000000000000, 0.000000000000000000, 0.000000000000000000 ) ) ;
#98 = CYLINDRICAL_SURFACE ( 'NONE', #136, 5.500000000000000000 ) ;
#99 = CC_DESIGN_APPROVAL ( #162, ( #220 ) ) ;
#100 = PRODUCT_RELATED_PRODUCT_CATEGORY ( 'detail', '', ( #41 ) ) ;
#101 = CARTESIAN_POINT ( 'NONE',  ( 0.000000000000000000, 0.000000000000000000, 5.000000000000000000 ) ) ;
#102 = CARTESIAN_POINT ( 'NONE',  ( -5.500000000000000000, 0.000000000000000000, 400.0000000000000000 ) ) ;
#103 = DIRECTION ( 'NONE',  ( 1.000000000000000000, 0.000000000000000000, 0.000000000000000000 ) ) ;
#104 = AXIS2_PLACEMENT_3D ( 'NONE', #17, #212, #103 ) ;
#105 = DATE_AND_TIME ( #5, #169 ) ;
#106 = FACE_OUTER_BOUND ( 'NONE', #130, .T. ) ;
#107 = CALENDAR_DATE ( 2023, 13, 2 ) ;
#108 = CALENDAR_DATE ( 2023, 13, 2 ) ;
#109 = CIRCLE ( 'NONE', #151, 8.000000000000000000 ) ;
#110 = ORIENTED_EDGE ( 'NONE', *, *, #40, .F. ) ;
#111 = PERSON_AND_ORGANIZATION_ROLE ( 'classification_officer' ) ;
#112 = EDGE_LOOP ( 'NONE', ( #125, #92 ) ) ;
#113 = ORIENTED_EDGE ( 'NONE', *, *, #242, .F. ) ;
#114 = CIRCLE ( 'NONE', #32, 5.500000000000000000 ) ;
#115 = ORIENTED_EDGE ( 'NONE', *, *, #122, .T. ) ;
#116 = DIRECTION ( 'NONE',  ( 1.000000000000000000, 0.000000000000000000, 0.000000000000000000 ) ) ;
#117 = CYLINDRICAL_SURFACE ( 'NONE', #188, 8.000000000000000000 ) ;
#118 = DIRECTION ( 'NONE',  ( 1.000000000000000000, 0.000000000000000000, 0.000000000000000000 ) ) ;
#119 = DIRECTION ( 'NONE',  ( 1.000000000000000000, 0.000000000000000000, -0.000000000000000000 ) ) ;
#120 = CARTESIAN_POINT ( 'NONE',  ( 5.500000000000000000, 6.735557395310441037E-16, 5.000000000000000000 ) ) ;
#121 = VECTOR ( 'NONE', #156, 1000.000000000000000 ) ;
#122 = EDGE_CURVE ( 'NONE', #246, #9, #233, .T. ) ;
#123 = DIRECTION ( 'NONE',  ( 0.000000000000000000, 0.000000000000000000, 1.000000000000000000 ) ) ;
#124 = CALENDAR_DATE ( 2023, 13, 2 ) ;
#125 = ORIENTED_EDGE ( 'NONE', *, *, #91, .F. ) ;
#126 = CARTESIAN_POINT ( 'NONE',  ( -5.500000000000000000, 0.000000000000000000, 5.000000000000000000 ) ) ;
#127 = DATE_AND_TIME ( #107, #62 ) ;
#128 = CIRCLE ( 'NONE', #178, 5.500000000000000000 ) ;
#129 = PERSON_AND_ORGANIZATION_ROLE ( 'creator' ) ;
#130 = EDGE_LOOP ( 'NONE', ( #73, #150 ) ) ;
#131 =( GEOMETRIC_REPRESENTATION_CONTEXT ( 3 ) GLOBAL_UNCERTAINTY_ASSIGNED_CONTEXT ( ( #4 ) ) GLOBAL_UNIT_ASSIGNED_CONTEXT ( ( #20, #201, #158 ) ) REPRESENTATION_CONTEXT ( 'NONE', 'WORKASPACE' ) );
#132 = DIRECTION ( 'NONE',  ( -0.000000000000000000, -0.000000000000000000, -1.000000000000000000 ) ) ;
#133 = CARTESIAN_POINT ( 'NONE',  ( 8.000000000000000000, 9.797174393178825657E-16, 0.000000000000000000 ) ) ;
#134 = AXIS2_PLACEMENT_3D ( 'NONE', #153, #234, #116 ) ;
#135 = CYLINDRICAL_SURFACE ( 'NONE', #211, 5.500000000000000000 ) ;
#136 = AXIS2_PLACEMENT_3D ( 'NONE', #251, #231, #97 ) ;
#137 = CARTESIAN_POINT ( 'NONE',  ( 0.000000000000000000, 0.000000000000000000, 400.0000000000000000 ) ) ;
#138 = CARTESIAN_POINT ( 'NONE',  ( 0.000000000000000000, 0.000000000000000000, 400.0000000000000000 ) ) ;
#139 = CC_DESIGN_DATE_AND_TIME_ASSIGNMENT ( #72, #243, ( #238 ) ) ;
#140 = DIRECTION ( 'NONE',  ( 0.000000000000000000, 0.000000000000000000, 1.000000000000000000 ) ) ;
#141 = AXIS2_PLACEMENT_3D ( 'NONE', #37, #18, #119 ) ;
#142 = CC_DESIGN_PERSON_AND_ORGANIZATION_ASSIGNMENT ( #6, #111, ( #238 ) ) ;
#143 = APPLICATION_PROTOCOL_DEFINITION ( 'international standard', 'config_control_design', 1994, #12 ) ;
#144 = LOCAL_TIME ( 13, 28, 34.00000000000000000, #66 ) ;
#145 = EDGE_CURVE ( 'NONE', #9, #246, #114, .T. ) ;
#146 = APPROVAL_DATE_TIME ( #29, #192 ) ;
#147 = ORIENTED_EDGE ( 'NONE', *, *, #181, .T. ) ;
#148 = ORIENTED_EDGE ( 'NONE', *, *, #227, .F. ) ;
#149 = ADVANCED_FACE ( 'NONE', ( #213 ), #98, .T. ) ;
#150 = ORIENTED_EDGE ( 'NONE', *, *, #236, .T. ) ;
#151 = AXIS2_PLACEMENT_3D ( 'NONE', #170, #13, #83 ) ;
#152 = DIRECTION ( 'NONE',  ( -0.000000000000000000, -0.000000000000000000, -1.000000000000000000 ) ) ;
#153 = CARTESIAN_POINT ( 'NONE',  ( 0.000000000000000000, 0.000000000000000000, 0.000000000000000000 ) ) ;
#154 = DIRECTION ( 'NONE',  ( 0.000000000000000000, 0.000000000000000000, 1.000000000000000000 ) ) ;
#155 = AXIS2_PLACEMENT_3D ( 'NONE', #209, #39, #118 ) ;
#156 = DIRECTION ( 'NONE',  ( -0.000000000000000000, -0.000000000000000000, -1.000000000000000000 ) ) ;
#157 = LINE ( 'NONE', #210, #121 ) ;
#158 =( NAMED_UNIT ( * ) SI_UNIT ( $, .STERADIAN. ) SOLID_ANGLE_UNIT ( ) );
#159 = DIRECTION ( 'NONE',  ( 1.000000000000000000, 0.000000000000000000, -0.000000000000000000 ) ) ;
#160 = COORDINATED_UNIVERSAL_TIME_OFFSET ( 1, 0, .AHEAD. ) ;
#161 = AXIS2_PLACEMENT_3D ( 'NONE', #84, #175, #63 ) ;
#162 = APPROVAL ( #25, 'NEURÈENÝ' ) ;
#163 = CARTESIAN_POINT ( 'NONE',  ( 0.000000000000000000, 0.000000000000000000, 5.000000000000000000 ) ) ;
#164 = DIRECTION ( 'NONE',  ( 1.000000000000000000, 0.000000000000000000, -0.000000000000000000 ) ) ;
#165 = EDGE_LOOP ( 'NONE', ( #244, #94 ) ) ;
#166 = CIRCLE ( 'NONE', #93, 8.000000000000000000 ) ;
#167 = VERTEX_POINT ( 'NONE', #197 ) ;
#168 = ADVANCED_FACE ( 'NONE', ( #194 ), #174, .T. ) ;
#169 = LOCAL_TIME ( 13, 28, 34.00000000000000000, #180 ) ;
#170 = CARTESIAN_POINT ( 'NONE',  ( 0.000000000000000000, 0.000000000000000000, 5.000000000000000000 ) ) ;
#171 = AXIS2_PLACEMENT_3D ( 'NONE', #88, #123, #45 ) ;
#172 = DIRECTION ( 'NONE',  ( 0.000000000000000000, 0.000000000000000000, 1.000000000000000000 ) ) ;
#173 = FACE_OUTER_BOUND ( 'NONE', #191, .T. ) ;
#174 = PLANE ( 'NONE',  #141 ) ;
#175 = DIRECTION ( 'NONE',  ( 0.000000000000000000, 0.000000000000000000, 1.000000000000000000 ) ) ;
#176 = PERSON_AND_ORGANIZATION ( #96, #71 ) ;
#177 = CC_DESIGN_DATE_AND_TIME_ASSIGNMENT ( #105, #2, ( #220 ) ) ;
#178 = AXIS2_PLACEMENT_3D ( 'NONE', #137, #172, #255 ) ;
#179 = LINE ( 'NONE', #1, #200 ) ;
#180 = COORDINATED_UNIVERSAL_TIME_OFFSET ( 1, 0, .AHEAD. ) ;
#181 = EDGE_CURVE ( 'NONE', #235, #182, #28, .T. ) ;
#182 = VERTEX_POINT ( 'NONE', #102 ) ;
#183 = CC_DESIGN_APPROVAL ( #27, ( #222 ) ) ;
#184 = PERSON_AND_ORGANIZATION ( #96, #71 ) ;
#185 = ORIENTED_EDGE ( 'NONE', *, *, #91, .T. ) ;
#186 = CC_DESIGN_PERSON_AND_ORGANIZATION_ASSIGNMENT ( #19, #240, ( #220 ) ) ;
#187 = ORIENTED_EDGE ( 'NONE', *, *, #181, .F. ) ;
#188 = AXIS2_PLACEMENT_3D ( 'NONE', #15, #57, #79 ) ;
#189 = ORIENTED_EDGE ( 'NONE', *, *, #242, .T. ) ;
#190 = VECTOR ( 'NONE', #16, 1000.000000000000000 ) ;
#191 = EDGE_LOOP ( 'NONE', ( #187, #208, #33, #113 ) ) ;
#192 = APPROVAL ( #67, 'NEURÈENÝ' ) ;
#193 = CARTESIAN_POINT ( 'NONE',  ( 0.000000000000000000, 0.000000000000000000, 5.000000000000000000 ) ) ;
#194 = FACE_OUTER_BOUND ( 'NONE', #248, .T. ) ;
#195 = DIRECTION ( 'NONE',  ( 1.000000000000000000, 0.000000000000000000, 0.000000000000000000 ) ) ;
#196 = DIRECTION ( 'NONE',  ( -0.000000000000000000, -0.000000000000000000, -1.000000000000000000 ) ) ;
#197 = CARTESIAN_POINT ( 'NONE',  ( -8.000000000000000000, 0.000000000000000000, 5.000000000000000000 ) ) ;
#198 = APPROVAL_DATE_TIME ( #127, #162 ) ;
#199 = FACE_OUTER_BOUND ( 'NONE', #112, .T. ) ;
#200 = VECTOR ( 'NONE', #216, 1000.000000000000000 ) ;
#201 =( NAMED_UNIT ( * ) PLANE_ANGLE_UNIT ( ) SI_UNIT ( $, .RADIAN. ) );
#202 = PERSON_AND_ORGANIZATION_ROLE ( 'design_owner' ) ;
#203 = AXIS2_PLACEMENT_3D ( 'NONE', #101, #132, #55 ) ;
#204 = ORIENTED_EDGE ( 'NONE', *, *, #75, .T. ) ;
#205 = CC_DESIGN_PERSON_AND_ORGANIZATION_ASSIGNMENT ( #184, #241, ( #222 ) ) ;
#206 = SHAPE_DEFINITION_REPRESENTATION ( #80, #59 ) ;
#207 = VERTEX_POINT ( 'NONE', #35 ) ;
#208 = ORIENTED_EDGE ( 'NONE', *, *, #82, .T. ) ;
#209 = CARTESIAN_POINT ( 'NONE',  ( 0.000000000000000000, 0.000000000000000000, 5.000000000000000000 ) ) ;
#210 = CARTESIAN_POINT ( 'NONE',  ( -8.000000000000000000, 0.000000000000000000, 5.000000000000000000 ) ) ;
#211 = AXIS2_PLACEMENT_3D ( 'NONE', #138, #196, #77 ) ;
#212 = DIRECTION ( 'NONE',  ( 0.000000000000000000, 0.000000000000000000, 1.000000000000000000 ) ) ;
#213 = FACE_OUTER_BOUND ( 'NONE', #225, .T. ) ;
#214 = CARTESIAN_POINT ( 'NONE',  ( 0.000000000000000000, 0.000000000000000000, 0.000000000000000000 ) ) ;
#215 = PLANE ( 'NONE',  #95 ) ;
#216 = DIRECTION ( 'NONE',  ( -0.000000000000000000, -0.000000000000000000, -1.000000000000000000 ) ) ;
#217 = COORDINATED_UNIVERSAL_TIME_OFFSET ( 1, 0, .AHEAD. ) ;
#218 = DIRECTION ( 'NONE',  ( 0.000000000000000000, 0.000000000000000000, 1.000000000000000000 ) ) ;
#219 = PERSON_AND_ORGANIZATION ( #96, #71 ) ;
#220 = PRODUCT_DEFINITION ( 'NEZNÁMÝ', '', #222, #44 ) ;
#221 = ORIENTED_EDGE ( 'NONE', *, *, #236, .F. ) ;
#222 = PRODUCT_DEFINITION_FORMATION_WITH_SPECIFIED_SOURCE ( 'LIBOVOLNÝ', '', #41, .NOT_KNOWN. ) ;
#223 = LOCAL_TIME ( 13, 28, 34.00000000000000000, #217 ) ;
#224 = SECURITY_CLASSIFICATION_LEVEL ( 'unclassified' ) ;
#225 = EDGE_LOOP ( 'NONE', ( #74, #50, #189, #115 ) ) ;
#226 = ORIENTED_EDGE ( 'NONE', *, *, #56, .T. ) ;
#227 = EDGE_CURVE ( 'NONE', #207, #30, #250, .T. ) ;
#228 = FACE_OUTER_BOUND ( 'NONE', #68, .T. ) ;
#229 = APPROVAL_PERSON_ORGANIZATION ( #10, #192, #46 ) ;
#230 = LINE ( 'NONE', #51, #21 ) ;
#231 = DIRECTION ( 'NONE',  ( -0.000000000000000000, -0.000000000000000000, -1.000000000000000000 ) ) ;
#232 = ADVANCED_FACE ( 'NONE', ( #254, #106 ), #85, .T. ) ;
#233 = CIRCLE ( 'NONE', #155, 5.500000000000000000 ) ;
#234 = DIRECTION ( 'NONE',  ( 0.000000000000000000, 0.000000000000000000, 1.000000000000000000 ) ) ;
#235 = VERTEX_POINT ( 'NONE', #239 ) ;
#236 = EDGE_CURVE ( 'NONE', #207, #167, #70, .T. ) ;
#237 = APPROVAL_ROLE ( '' ) ;
#238 = SECURITY_CLASSIFICATION ( '', '', #224 ) ;
#239 = CARTESIAN_POINT ( 'NONE',  ( 5.500000000000000000, 6.735557395310441037E-16, 400.0000000000000000 ) ) ;
#240 = PERSON_AND_ORGANIZATION_ROLE ( 'creator' ) ;
#241 = PERSON_AND_ORGANIZATION_ROLE ( 'design_supplier' ) ;
#242 = EDGE_CURVE ( 'NONE', #182, #246, #179, .T. ) ;
#243 = DATE_TIME_ROLE ( 'classification_date' ) ;
#244 = ORIENTED_EDGE ( 'NONE', *, *, #122, .F. ) ;
#245 = APPROVAL_DATE_TIME ( #23, #27 ) ;
#246 = VERTEX_POINT ( 'NONE', #126 ) ;
#247 = LOCAL_TIME ( 13, 28, 34.00000000000000000, #90 ) ;
#248 = EDGE_LOOP ( 'NONE', ( #226, #147 ) ) ;
#249 = ADVANCED_FACE ( 'NONE', ( #199 ), #215, .F. ) ;
#250 = LINE ( 'NONE', #76, #190 ) ;
#251 = CARTESIAN_POINT ( 'NONE',  ( 0.000000000000000000, 0.000000000000000000, 400.0000000000000000 ) ) ;
#252 = CC_DESIGN_PERSON_AND_ORGANIZATION_ASSIGNMENT ( #219, #129, ( #222 ) ) ;
#253 = CARTESIAN_POINT ( 'NONE',  ( -8.000000000000000000, 0.000000000000000000, 0.000000000000000000 ) ) ;
#254 = FACE_BOUND ( 'NONE', #165, .T. ) ;
#255 = DIRECTION ( 'NONE',  ( 1.000000000000000000, 0.000000000000000000, 0.000000000000000000 ) ) ;
ENDSEC;
END-ISO-10303-21;
