ISO-10303-21;
HEADER;
FILE_DESCRIPTION (( 'STEP AP203' ),
    '1' );
FILE_NAME ('5783.STEP',
    '2022-07-07T17:16:44',
    ( '' ),
    ( '' ),
    'SwSTEP 2.0',
    'SolidWorks 2019',
    '' );
FILE_SCHEMA (( 'CONFIG_CONTROL_DESIGN' ));
ENDSEC;

DATA;
#1 = APPROVAL ( #191, 'NEURÈENÝ' ) ;
#2 = CARTESIAN_POINT ( 'NONE',  ( 11.00000000000000000, 1.347111479062088405E-15, 7.000000000000000000 ) ) ;
#3 = CARTESIAN_POINT ( 'NONE',  ( -11.00000000000000000, 0.000000000000000000, 7.000000000000000000 ) ) ;
#4 = EDGE_CURVE ( 'NONE', #163, #252, #121, .T. ) ;
#5 = APPROVAL_DATE_TIME ( #92, #27 ) ;
#6 = DIRECTION ( 'NONE',  ( -0.000000000000000000, -0.000000000000000000, -1.000000000000000000 ) ) ;
#7 = CARTESIAN_POINT ( 'NONE',  ( -11.00000000000000000, 0.000000000000000000, 7.000000000000000000 ) ) ;
#8 = CC_DESIGN_APPROVAL ( #182, ( #50 ) ) ;
#9 = DIRECTION ( 'NONE',  ( -1.000000000000000000, 0.000000000000000000, 0.000000000000000000 ) ) ;
#10 = EDGE_CURVE ( 'NONE', #141, #113, #214, .T. ) ;
#11 = ORIENTED_EDGE ( 'NONE', *, *, #47, .T. ) ;
#12 = CARTESIAN_POINT ( 'NONE',  ( 0.000000000000000000, 0.000000000000000000, 0.000000000000000000 ) ) ;
#13 = PRODUCT ( '5783', '5783', '', ( #110 ) ) ;
#14 = ORIENTED_EDGE ( 'NONE', *, *, #17, .F. ) ;
#15 = CALENDAR_DATE ( 2022, 7, 7 ) ;
#16 = CIRCLE ( 'NONE', #28, 11.00000000000000000 ) ;
#17 = EDGE_CURVE ( 'NONE', #252, #163, #90, .T. ) ;
#18 = ORIENTED_EDGE ( 'NONE', *, *, #192, .F. ) ;
#19 = CALENDAR_DATE ( 2022, 7, 7 ) ;
#20 = DIRECTION ( 'NONE',  ( 1.000000000000000000, 0.000000000000000000, 0.000000000000000000 ) ) ;
#21 = APPROVAL_ROLE ( '' ) ;
#22 = ADVANCED_FACE ( 'NONE', ( #203 ), #223, .T. ) ;
#23 = FACE_OUTER_BOUND ( 'NONE', #143, .T. ) ;
#24 = DIRECTION ( 'NONE',  ( 1.000000000000000000, 0.000000000000000000, 0.000000000000000000 ) ) ;
#25 = CC_DESIGN_PERSON_AND_ORGANIZATION_ASSIGNMENT ( #234, #58, ( #112 ) ) ;
#26 = CARTESIAN_POINT ( 'NONE',  ( 0.000000000000000000, 0.000000000000000000, 257.0000000000000000 ) ) ;
#27 = APPROVAL ( #38, 'NEURÈENÝ' ) ;
#28 = AXIS2_PLACEMENT_3D ( 'NONE', #162, #120, #29 ) ;
#29 = DIRECTION ( 'NONE',  ( 1.000000000000000000, 0.000000000000000000, 0.000000000000000000 ) ) ;
#30 = ORIENTED_EDGE ( 'NONE', *, *, #176, .T. ) ;
#31 = PERSON_AND_ORGANIZATION_ROLE ( 'design_owner' ) ;
#32 = VERTEX_POINT ( 'NONE', #181 ) ;
#33 = APPROVAL_STATUS ( 'not_yet_approved' ) ;
#34 = ORIENTED_EDGE ( 'NONE', *, *, #165, .F. ) ;
#35 = COORDINATED_UNIVERSAL_TIME_OFFSET ( 1, 0, .AHEAD. ) ;
#36 = EDGE_LOOP ( 'NONE', ( #184, #69 ) ) ;
#37 = DATE_TIME_ROLE ( 'classification_date' ) ;
#38 = APPROVAL_STATUS ( 'not_yet_approved' ) ;
#39 = ORGANIZATION ( 'NEURÈENÝ', 'NEURÈENÝ', '' ) ;
#40 = DIRECTION ( 'NONE',  ( 0.000000000000000000, 0.000000000000000000, 1.000000000000000000 ) ) ;
#41 = DIRECTION ( 'NONE',  ( 0.000000000000000000, 0.000000000000000000, 1.000000000000000000 ) ) ;
#42 = APPROVAL_PERSON_ORGANIZATION ( #114, #27, #128 ) ;
#43 = EDGE_CURVE ( 'NONE', #167, #113, #48, .T. ) ;
#44 = DIRECTION ( 'NONE',  ( 0.000000000000000000, 0.000000000000000000, 1.000000000000000000 ) ) ;
#45 = APPROVAL_PERSON_ORGANIZATION ( #171, #1, #21 ) ;
#46 = CARTESIAN_POINT ( 'NONE',  ( 0.000000000000000000, 0.000000000000000000, 257.0000000000000000 ) ) ;
#47 = EDGE_CURVE ( 'NONE', #32, #163, #81, .T. ) ;
#48 = LINE ( 'NONE', #7, #237 ) ;
#49 = DIRECTION ( 'NONE',  ( 0.000000000000000000, 0.000000000000000000, 1.000000000000000000 ) ) ;
#50 = PRODUCT_DEFINITION ( 'NEZNÁMÝ', '', #89, #66 ) ;
#51 = ORIENTED_EDGE ( 'NONE', *, *, #165, .T. ) ;
#52 = DIRECTION ( 'NONE',  ( 1.000000000000000000, 0.000000000000000000, 0.000000000000000000 ) ) ;
#53 = VERTEX_POINT ( 'NONE', #65 ) ;
#54 = COORDINATED_UNIVERSAL_TIME_OFFSET ( 1, 0, .AHEAD. ) ;
#55 = ORIENTED_EDGE ( 'NONE', *, *, #47, .F. ) ;
#56 = DATE_AND_TIME ( #212, #82 ) ;
#57 = ORIENTED_EDGE ( 'NONE', *, *, #4, .F. ) ;
#58 = PERSON_AND_ORGANIZATION_ROLE ( 'classification_officer' ) ;
#59 = CARTESIAN_POINT ( 'NONE',  ( -6.500000000000000888, 0.000000000000000000, 257.0000000000000000 ) ) ;
#60 = DIRECTION ( 'NONE',  ( 1.000000000000000000, 0.000000000000000000, 0.000000000000000000 ) ) ;
#61 = CC_DESIGN_PERSON_AND_ORGANIZATION_ASSIGNMENT ( #248, #251, ( #50 ) ) ;
#62 = CARTESIAN_POINT ( 'NONE',  ( 0.000000000000000000, 0.000000000000000000, 7.000000000000000000 ) ) ;
#63 = PLANE ( 'NONE',  #177 ) ;
#64 = FACE_OUTER_BOUND ( 'NONE', #125, .T. ) ;
#65 = CARTESIAN_POINT ( 'NONE',  ( -6.500000000000000888, 0.000000000000000000, 257.0000000000000000 ) ) ;
#66 = DESIGN_CONTEXT ( 'detailed design', #84, 'design' ) ;
#67 = CC_DESIGN_DATE_AND_TIME_ASSIGNMENT ( #115, #253, ( #50 ) ) ;
#68 = APPLICATION_PROTOCOL_DEFINITION ( 'international standard', 'config_control_design', 1994, #84 ) ;
#69 = ORIENTED_EDGE ( 'NONE', *, *, #77, .T. ) ;
#70 = EDGE_LOOP ( 'NONE', ( #14, #57 ) ) ;
#71 = CALENDAR_DATE ( 2022, 7, 7 ) ;
#72 = DIRECTION ( 'NONE',  ( 0.000000000000000000, 0.000000000000000000, 1.000000000000000000 ) ) ;
#73 = PERSON_AND_ORGANIZATION_ROLE ( 'creator' ) ;
#74 = CARTESIAN_POINT ( 'NONE',  ( 6.500000000000000888, 7.960204194457796463E-16, 7.000000000000000000 ) ) ;
#75 = CARTESIAN_POINT ( 'NONE',  ( 0.000000000000000000, 0.000000000000000000, 0.000000000000000000 ) ) ;
#76 = CIRCLE ( 'NONE', #95, 11.00000000000000000 ) ;
#77 = EDGE_CURVE ( 'NONE', #148, #167, #16, .T. ) ;
#78 = DIRECTION ( 'NONE',  ( -1.000000000000000000, 0.000000000000000000, 0.000000000000000000 ) ) ;
#79 = DIRECTION ( 'NONE',  ( 0.000000000000000000, 0.000000000000000000, 1.000000000000000000 ) ) ;
#80 = CC_DESIGN_PERSON_AND_ORGANIZATION_ASSIGNMENT ( #153, #149, ( #89 ) ) ;
#81 = LINE ( 'NONE', #160, #134 ) ;
#82 = LOCAL_TIME ( 19, 16, 44.00000000000000000, #130 ) ;
#83 = DIRECTION ( 'NONE',  ( 0.000000000000000000, 0.000000000000000000, 1.000000000000000000 ) ) ;
#84 = APPLICATION_CONTEXT ( 'configuration controlled 3d designs of mechanical parts and assemblies' ) ;
#85 = PERSON ( 'NEURÈENÝ', 'NEURÈENÝ', 'NEURÈENÝ', ('NEURÈENÝ'), ('NEURÈENÝ'), ('NEURÈENÝ') ) ;
#86 = EDGE_LOOP ( 'NONE', ( #190, #146 ) ) ;
#87 = APPROVAL_DATE_TIME ( #187, #182 ) ;
#88 = APPLICATION_CONTEXT ( 'configuration controlled 3d designs of mechanical parts and assemblies' ) ;
#89 = PRODUCT_DEFINITION_FORMATION_WITH_SPECIFIED_SOURCE ( 'LIBOVOLNÝ', '', #13, .NOT_KNOWN. ) ;
#90 = CIRCLE ( 'NONE', #217, 6.500000000000000888 ) ;
#91 = EDGE_LOOP ( 'NONE', ( #170, #11, #168, #186 ) ) ;
#92 = DATE_AND_TIME ( #19, #232 ) ;
#93 = CARTESIAN_POINT ( 'NONE',  ( 0.000000000000000000, 0.000000000000000000, 7.000000000000000000 ) ) ;
#94 = DATE_AND_TIME ( #71, #236 ) ;
#95 = AXIS2_PLACEMENT_3D ( 'NONE', #116, #41, #117 ) ;
#96 = DIRECTION ( 'NONE',  ( -0.000000000000000000, -0.000000000000000000, -1.000000000000000000 ) ) ;
#97 = EDGE_CURVE ( 'NONE', #32, #53, #137, .T. ) ;
#98 = CARTESIAN_POINT ( 'NONE',  ( 11.00000000000000000, 1.347111479062088405E-15, 0.000000000000000000 ) ) ;
#99 = ADVANCED_FACE ( 'NONE', ( #64 ), #138, .T. ) ;
#100 = CARTESIAN_POINT ( 'NONE',  ( 0.000000000000000000, 0.000000000000000000, 0.000000000000000000 ) ) ;
#101 = SHAPE_DEFINITION_REPRESENTATION ( #150, #193 ) ;
#102 = CC_DESIGN_PERSON_AND_ORGANIZATION_ASSIGNMENT ( #207, #31, ( #13 ) ) ;
#103 = DIRECTION ( 'NONE',  ( -0.000000000000000000, -0.000000000000000000, -1.000000000000000000 ) ) ;
#104 = DIRECTION ( 'NONE',  ( -0.000000000000000000, -0.000000000000000000, -1.000000000000000000 ) ) ;
#105 = AXIS2_PLACEMENT_3D ( 'NONE', #26, #183, #139 ) ;
#106 = FACE_OUTER_BOUND ( 'NONE', #86, .T. ) ;
#107 = ORIENTED_EDGE ( 'NONE', *, *, #17, .T. ) ;
#108 = APPLICATION_PROTOCOL_DEFINITION ( 'international standard', 'config_control_design', 1994, #88 ) ;
#109 = ORIENTED_EDGE ( 'NONE', *, *, #77, .F. ) ;
#110 = MECHANICAL_CONTEXT ( 'NONE', #88, 'mechanical' ) ;
#111 = MANIFOLD_SOLID_BREP ( 'Pøidat vysunutím3', #239 ) ;
#112 = SECURITY_CLASSIFICATION ( '', '', #230 ) ;
#113 = VERTEX_POINT ( 'NONE', #119 ) ;
#114 = PERSON_AND_ORGANIZATION ( #85, #39 ) ;
#115 = DATE_AND_TIME ( #169, #249 ) ;
#116 = CARTESIAN_POINT ( 'NONE',  ( 0.000000000000000000, 0.000000000000000000, 7.000000000000000000 ) ) ;
#117 = DIRECTION ( 'NONE',  ( 1.000000000000000000, 0.000000000000000000, 0.000000000000000000 ) ) ;
#118 = AXIS2_PLACEMENT_3D ( 'NONE', #197, #133, #175 ) ;
#119 = CARTESIAN_POINT ( 'NONE',  ( -11.00000000000000000, 0.000000000000000000, 0.000000000000000000 ) ) ;
#120 = DIRECTION ( 'NONE',  ( 0.000000000000000000, 0.000000000000000000, 1.000000000000000000 ) ) ;
#121 = CIRCLE ( 'NONE', #201, 6.500000000000000888 ) ;
#122 = AXIS2_PLACEMENT_3D ( 'NONE', #62, #6, #78 ) ;
#123 = ORIENTED_EDGE ( 'NONE', *, *, #10, .T. ) ;
#124 = EDGE_LOOP ( 'NONE', ( #152, #225 ) ) ;
#125 = EDGE_LOOP ( 'NONE', ( #55, #18, #30, #107 ) ) ;
#126 = ADVANCED_FACE ( 'NONE', ( #106 ), #246, .T. ) ;
#127 = CARTESIAN_POINT ( 'NONE',  ( 0.000000000000000000, 0.000000000000000000, 7.000000000000000000 ) ) ;
#128 = APPROVAL_ROLE ( '' ) ;
#129 = CARTESIAN_POINT ( 'NONE',  ( 0.000000000000000000, 0.000000000000000000, 0.000000000000000000 ) ) ;
#130 = COORDINATED_UNIVERSAL_TIME_OFFSET ( 1, 0, .AHEAD. ) ;
#131 = LINE ( 'NONE', #154, #156 ) ;
#132 = CIRCLE ( 'NONE', #255, 6.500000000000000888 ) ;
#133 = DIRECTION ( 'NONE',  ( 0.000000000000000000, 0.000000000000000000, 1.000000000000000000 ) ) ;
#134 = VECTOR ( 'NONE', #104, 1000.000000000000000 ) ;
#135 = CARTESIAN_POINT ( 'NONE',  ( 0.000000000000000000, 0.000000000000000000, 7.000000000000000000 ) ) ;
#136 = CYLINDRICAL_SURFACE ( 'NONE', #122, 11.00000000000000000 ) ;
#137 = CIRCLE ( 'NONE', #172, 6.500000000000000888 ) ;
#138 = CYLINDRICAL_SURFACE ( 'NONE', #244, 6.500000000000000888 ) ;
#139 = DIRECTION ( 'NONE',  ( -1.000000000000000000, 0.000000000000000000, 0.000000000000000000 ) ) ;
#140 = ADVANCED_FACE ( 'NONE', ( #23 ), #174, .T. ) ;
#141 = VERTEX_POINT ( 'NONE', #98 ) ;
#142 = APPROVAL_PERSON_ORGANIZATION ( #185, #182, #228 ) ;
#143 = EDGE_LOOP ( 'NONE', ( #109, #51, #123, #226 ) ) ;
#144 = DIRECTION ( 'NONE',  ( 0.000000000000000000, 0.000000000000000000, 1.000000000000000000 ) ) ;
#145 = EDGE_CURVE ( 'NONE', #167, #148, #76, .T. ) ;
#146 = ORIENTED_EDGE ( 'NONE', *, *, #97, .T. ) ;
#147 = COORDINATED_UNIVERSAL_TIME_OFFSET ( 1, 0, .AHEAD. ) ;
#148 = VERTEX_POINT ( 'NONE', #2 ) ;
#149 = PERSON_AND_ORGANIZATION_ROLE ( 'design_supplier' ) ;
#150 = PRODUCT_DEFINITION_SHAPE ( 'NONE', 'NONE',  #50 ) ;
#151 = VECTOR ( 'NONE', #195, 1000.000000000000000 ) ;
#152 = ORIENTED_EDGE ( 'NONE', *, *, #205, .F. ) ;
#153 = PERSON_AND_ORGANIZATION ( #85, #39 ) ;
#154 = CARTESIAN_POINT ( 'NONE',  ( 11.00000000000000000, 1.347111479062088405E-15, 7.000000000000000000 ) ) ;
#155 = DIRECTION ( 'NONE',  ( 0.000000000000000000, 0.000000000000000000, 1.000000000000000000 ) ) ;
#156 = VECTOR ( 'NONE', #235, 1000.000000000000000 ) ;
#157 = AXIS2_PLACEMENT_3D ( 'NONE', #75, #155, #60 ) ;
#158 = PLANE ( 'NONE',  #164 ) ;
#159 = FACE_OUTER_BOUND ( 'NONE', #124, .T. ) ;
#160 = CARTESIAN_POINT ( 'NONE',  ( 6.500000000000000888, 7.960204194457796463E-16, 257.0000000000000000 ) ) ;
#161 =( GEOMETRIC_REPRESENTATION_CONTEXT ( 3 ) GLOBAL_UNCERTAINTY_ASSIGNED_CONTEXT ( ( #198 ) ) GLOBAL_UNIT_ASSIGNED_CONTEXT ( ( #220, #179, #180 ) ) REPRESENTATION_CONTEXT ( 'NONE', 'WORKASPACE' ) );
#162 = CARTESIAN_POINT ( 'NONE',  ( 0.000000000000000000, 0.000000000000000000, 7.000000000000000000 ) ) ;
#163 = VERTEX_POINT ( 'NONE', #74 ) ;
#164 = AXIS2_PLACEMENT_3D ( 'NONE', #135, #44, #241 ) ;
#165 = EDGE_CURVE ( 'NONE', #148, #141, #131, .T. ) ;
#166 = CC_DESIGN_APPROVAL ( #27, ( #112 ) ) ;
#167 = VERTEX_POINT ( 'NONE', #3 ) ;
#168 = ORIENTED_EDGE ( 'NONE', *, *, #4, .T. ) ;
#169 = CALENDAR_DATE ( 2022, 7, 7 ) ;
#170 = ORIENTED_EDGE ( 'NONE', *, *, #97, .F. ) ;
#171 = PERSON_AND_ORGANIZATION ( #85, #39 ) ;
#172 = AXIS2_PLACEMENT_3D ( 'NONE', #204, #83, #245 ) ;
#173 = CIRCLE ( 'NONE', #157, 11.00000000000000000 ) ;
#174 = CYLINDRICAL_SURFACE ( 'NONE', #208, 11.00000000000000000 ) ;
#175 = DIRECTION ( 'NONE',  ( 1.000000000000000000, 0.000000000000000000, -0.000000000000000000 ) ) ;
#176 = EDGE_CURVE ( 'NONE', #53, #252, #238, .T. ) ;
#177 = AXIS2_PLACEMENT_3D ( 'NONE', #100, #79, #199 ) ;
#178 = AXIS2_PLACEMENT_3D ( 'NONE', #129, #49, #20 ) ;
#179 =( NAMED_UNIT ( * ) PLANE_ANGLE_UNIT ( ) SI_UNIT ( $, .RADIAN. ) );
#180 =( NAMED_UNIT ( * ) SI_UNIT ( $, .STERADIAN. ) SOLID_ANGLE_UNIT ( ) );
#181 = CARTESIAN_POINT ( 'NONE',  ( 6.500000000000000888, 7.960204194457796463E-16, 257.0000000000000000 ) ) ;
#182 = APPROVAL ( #33, 'NEURÈENÝ' ) ;
#183 = DIRECTION ( 'NONE',  ( -0.000000000000000000, -0.000000000000000000, -1.000000000000000000 ) ) ;
#184 = ORIENTED_EDGE ( 'NONE', *, *, #145, .T. ) ;
#185 = PERSON_AND_ORGANIZATION ( #85, #39 ) ;
#186 = ORIENTED_EDGE ( 'NONE', *, *, #176, .F. ) ;
#187 = DATE_AND_TIME ( #15, #213 ) ;
#188 = CC_DESIGN_APPROVAL ( #1, ( #89 ) ) ;
#189 = COORDINATED_UNIVERSAL_TIME_OFFSET ( 1, 0, .AHEAD. ) ;
#190 = ORIENTED_EDGE ( 'NONE', *, *, #192, .T. ) ;
#191 = APPROVAL_STATUS ( 'not_yet_approved' ) ;
#192 = EDGE_CURVE ( 'NONE', #53, #32, #132, .T. ) ;
#193 = ADVANCED_BREP_SHAPE_REPRESENTATION ( '5783', ( #111, #200 ), #161 ) ;
#194 = CARTESIAN_POINT ( 'NONE',  ( 0.000000000000000000, 0.000000000000000000, 7.000000000000000000 ) ) ;
#195 = DIRECTION ( 'NONE',  ( -0.000000000000000000, -0.000000000000000000, -1.000000000000000000 ) ) ;
#196 = PRODUCT_RELATED_PRODUCT_CATEGORY ( 'detail', '', ( #13 ) ) ;
#197 = CARTESIAN_POINT ( 'NONE',  ( 0.000000000000000000, 0.000000000000000000, 257.0000000000000000 ) ) ;
#198 = UNCERTAINTY_MEASURE_WITH_UNIT (LENGTH_MEASURE( 1.000000000000000082E-05 ), #220, 'distance_accuracy_value', 'NONE');
#199 = DIRECTION ( 'NONE',  ( 1.000000000000000000, 0.000000000000000000, -0.000000000000000000 ) ) ;
#200 = AXIS2_PLACEMENT_3D ( 'NONE', #12, #144, #52 ) ;
#201 = AXIS2_PLACEMENT_3D ( 'NONE', #127, #209, #206 ) ;
#202 = CARTESIAN_POINT ( 'NONE',  ( -6.500000000000000888, 0.000000000000000000, 7.000000000000000000 ) ) ;
#203 = FACE_OUTER_BOUND ( 'NONE', #91, .T. ) ;
#204 = CARTESIAN_POINT ( 'NONE',  ( 0.000000000000000000, 0.000000000000000000, 257.0000000000000000 ) ) ;
#205 = EDGE_CURVE ( 'NONE', #113, #141, #173, .T. ) ;
#206 = DIRECTION ( 'NONE',  ( 1.000000000000000000, 0.000000000000000000, 0.000000000000000000 ) ) ;
#207 = PERSON_AND_ORGANIZATION ( #85, #39 ) ;
#208 = AXIS2_PLACEMENT_3D ( 'NONE', #194, #96, #216 ) ;
#209 = DIRECTION ( 'NONE',  ( 0.000000000000000000, 0.000000000000000000, 1.000000000000000000 ) ) ;
#210 = APPROVAL_DATE_TIME ( #94, #1 ) ;
#211 = ADVANCED_FACE ( 'NONE', ( #159 ), #63, .F. ) ;
#212 = CALENDAR_DATE ( 2022, 7, 7 ) ;
#213 = LOCAL_TIME ( 19, 16, 44.00000000000000000, #54 ) ;
#214 = CIRCLE ( 'NONE', #178, 11.00000000000000000 ) ;
#215 = CARTESIAN_POINT ( 'NONE',  ( 0.000000000000000000, 0.000000000000000000, 257.0000000000000000 ) ) ;
#216 = DIRECTION ( 'NONE',  ( -1.000000000000000000, 0.000000000000000000, 0.000000000000000000 ) ) ;
#217 = AXIS2_PLACEMENT_3D ( 'NONE', #93, #72, #233 ) ;
#218 = CC_DESIGN_SECURITY_CLASSIFICATION ( #112, ( #89 ) ) ;
#219 = FACE_BOUND ( 'NONE', #70, .T. ) ;
#220 =( LENGTH_UNIT ( ) NAMED_UNIT ( * ) SI_UNIT ( .MILLI., .METRE. ) );
#221 = ADVANCED_FACE ( 'NONE', ( #243 ), #136, .T. ) ;
#222 = DIRECTION ( 'NONE',  ( -0.000000000000000000, -0.000000000000000000, -1.000000000000000000 ) ) ;
#223 = CYLINDRICAL_SURFACE ( 'NONE', #105, 6.500000000000000888 ) ;
#224 = CC_DESIGN_PERSON_AND_ORGANIZATION_ASSIGNMENT ( #254, #73, ( #89 ) ) ;
#225 = ORIENTED_EDGE ( 'NONE', *, *, #10, .F. ) ;
#226 = ORIENTED_EDGE ( 'NONE', *, *, #43, .F. ) ;
#227 = ORIENTED_EDGE ( 'NONE', *, *, #43, .T. ) ;
#228 = APPROVAL_ROLE ( '' ) ;
#229 = ORIENTED_EDGE ( 'NONE', *, *, #145, .F. ) ;
#230 = SECURITY_CLASSIFICATION_LEVEL ( 'unclassified' ) ;
#231 = CC_DESIGN_DATE_AND_TIME_ASSIGNMENT ( #56, #37, ( #112 ) ) ;
#232 = LOCAL_TIME ( 19, 16, 44.00000000000000000, #189 ) ;
#233 = DIRECTION ( 'NONE',  ( 1.000000000000000000, 0.000000000000000000, 0.000000000000000000 ) ) ;
#234 = PERSON_AND_ORGANIZATION ( #85, #39 ) ;
#235 = DIRECTION ( 'NONE',  ( -0.000000000000000000, -0.000000000000000000, -1.000000000000000000 ) ) ;
#236 = LOCAL_TIME ( 19, 16, 44.00000000000000000, #35 ) ;
#237 = VECTOR ( 'NONE', #103, 1000.000000000000000 ) ;
#238 = LINE ( 'NONE', #59, #151 ) ;
#239 = CLOSED_SHELL ( 'NONE', ( #22, #140, #221, #242, #211, #99, #126 ) ) ;
#240 = FACE_OUTER_BOUND ( 'NONE', #36, .T. ) ;
#241 = DIRECTION ( 'NONE',  ( 1.000000000000000000, 0.000000000000000000, -0.000000000000000000 ) ) ;
#242 = ADVANCED_FACE ( 'NONE', ( #219, #240 ), #158, .T. ) ;
#243 = FACE_OUTER_BOUND ( 'NONE', #247, .T. ) ;
#244 = AXIS2_PLACEMENT_3D ( 'NONE', #46, #222, #9 ) ;
#245 = DIRECTION ( 'NONE',  ( 1.000000000000000000, 0.000000000000000000, 0.000000000000000000 ) ) ;
#246 = PLANE ( 'NONE',  #118 ) ;
#247 = EDGE_LOOP ( 'NONE', ( #34, #229, #227, #250 ) ) ;
#248 = PERSON_AND_ORGANIZATION ( #85, #39 ) ;
#249 = LOCAL_TIME ( 19, 16, 44.00000000000000000, #147 ) ;
#250 = ORIENTED_EDGE ( 'NONE', *, *, #205, .T. ) ;
#251 = PERSON_AND_ORGANIZATION_ROLE ( 'creator' ) ;
#252 = VERTEX_POINT ( 'NONE', #202 ) ;
#253 = DATE_TIME_ROLE ( 'creation_date' ) ;
#254 = PERSON_AND_ORGANIZATION ( #85, #39 ) ;
#255 = AXIS2_PLACEMENT_3D ( 'NONE', #215, #40, #24 ) ;
ENDSEC;
END-ISO-10303-21;
