ISO-10303-21;
HEADER;
FILE_DESCRIPTION (( 'STEP AP203' ),
    '1' );
FILE_NAME ('df81.STEP',
    '2022-07-07T17:53:25',
    ( '' ),
    ( '' ),
    'SwSTEP 2.0',
    'SolidWorks 2019',
    '' );
FILE_SCHEMA (( 'CONFIG_CONTROL_DESIGN' ));
ENDSEC;

DATA;
#1 = PLANE ( 'NONE',  #183 ) ;
#2 = ORIENTED_EDGE ( 'NONE', *, *, #201, .F. ) ;
#3 = DIRECTION ( 'NONE',  ( -0.000000000000000000, -0.000000000000000000, -1.000000000000000000 ) ) ;
#4 = CYLINDRICAL_SURFACE ( 'NONE', #95, 3.500000000000000000 ) ;
#5 = PERSON_AND_ORGANIZATION ( #57, #69 ) ;
#6 = PLANE ( 'NONE',  #231 ) ;
#7 = ADVANCED_FACE ( 'NONE', ( #23 ), #4, .T. ) ;
#8 = PRODUCT_DEFINITION ( 'NEZNÁMÝ', '', #27, #121 ) ;
#9 = PERSON_AND_ORGANIZATION_ROLE ( 'design_owner' ) ;
#10 = PERSON_AND_ORGANIZATION ( #57, #69 ) ;
#11 = AXIS2_PLACEMENT_3D ( 'NONE', #116, #118, #81 ) ;
#12 = APPROVAL_DATE_TIME ( #53, #147 ) ;
#13 = ADVANCED_FACE ( 'NONE', ( #101 ), #242, .T. ) ;
#14 = ADVANCED_FACE ( 'NONE', ( #39, #36 ), #6, .T. ) ;
#15 = EDGE_LOOP ( 'NONE', ( #233, #96, #139, #241 ) ) ;
#16 = CARTESIAN_POINT ( 'NONE',  ( -3.500000000000000000, 0.000000000000000000, 3.000000000000000000 ) ) ;
#17 = CC_DESIGN_PERSON_AND_ORGANIZATION_ASSIGNMENT ( #10, #50, ( #27 ) ) ;
#18 = VECTOR ( 'NONE', #176, 1000.000000000000000 ) ;
#19 = CARTESIAN_POINT ( 'NONE',  ( 0.000000000000000000, 0.000000000000000000, 253.0000000000000000 ) ) ;
#20 = ORIENTED_EDGE ( 'NONE', *, *, #252, .F. ) ;
#21 = AXIS2_PLACEMENT_3D ( 'NONE', #173, #129, #107 ) ;
#22 = DIRECTION ( 'NONE',  ( 0.000000000000000000, 0.000000000000000000, 1.000000000000000000 ) ) ;
#23 = FACE_OUTER_BOUND ( 'NONE', #43, .T. ) ;
#24 = CARTESIAN_POINT ( 'NONE',  ( 3.500000000000000000, 4.286263797015736595E-16, 3.000000000000000000 ) ) ;
#25 = DIRECTION ( 'NONE',  ( -0.000000000000000000, -0.000000000000000000, -1.000000000000000000 ) ) ;
#26 = CC_DESIGN_PERSON_AND_ORGANIZATION_ASSIGNMENT ( #247, #206, ( #27 ) ) ;
#27 = PRODUCT_DEFINITION_FORMATION_WITH_SPECIFIED_SOURCE ( 'LIBOVOLNÝ', '', #76, .NOT_KNOWN. ) ;
#28 = ORIENTED_EDGE ( 'NONE', *, *, #207, .F. ) ;
#29 = PERSON_AND_ORGANIZATION ( #57, #69 ) ;
#30 = AXIS2_PLACEMENT_3D ( 'NONE', #237, #135, #215 ) ;
#31 = SECURITY_CLASSIFICATION_LEVEL ( 'unclassified' ) ;
#32 = AXIS2_PLACEMENT_3D ( 'NONE', #111, #25, #44 ) ;
#33 = LOCAL_TIME ( 19, 53, 25.00000000000000000, #47 ) ;
#34 = LINE ( 'NONE', #56, #161 ) ;
#35 = DIRECTION ( 'NONE',  ( -0.000000000000000000, -0.000000000000000000, -1.000000000000000000 ) ) ;
#36 = FACE_OUTER_BOUND ( 'NONE', #172, .T. ) ;
#37 = CARTESIAN_POINT ( 'NONE',  ( 0.000000000000000000, 0.000000000000000000, 3.000000000000000000 ) ) ;
#38 = APPROVAL_ROLE ( '' ) ;
#39 = FACE_BOUND ( 'NONE', #187, .T. ) ;
#40 = LINE ( 'NONE', #24, #18 ) ;
#41 = VERTEX_POINT ( 'NONE', #84 ) ;
#42 = EDGE_LOOP ( 'NONE', ( #177, #228 ) ) ;
#43 = EDGE_LOOP ( 'NONE', ( #67, #212, #68, #193 ) ) ;
#44 = DIRECTION ( 'NONE',  ( -1.000000000000000000, 0.000000000000000000, 0.000000000000000000 ) ) ;
#45 = CC_DESIGN_PERSON_AND_ORGANIZATION_ASSIGNMENT ( #29, #122, ( #159 ) ) ;
#46 = CIRCLE ( 'NONE', #104, 3.500000000000000000 ) ;
#47 = COORDINATED_UNIVERSAL_TIME_OFFSET ( 1, 0, .AHEAD. ) ;
#48 = VECTOR ( 'NONE', #82, 1000.000000000000000 ) ;
#49 = PERSON_AND_ORGANIZATION ( #57, #69 ) ;
#50 = PERSON_AND_ORGANIZATION_ROLE ( 'design_supplier' ) ;
#51 = COORDINATED_UNIVERSAL_TIME_OFFSET ( 1, 0, .AHEAD. ) ;
#52 = EDGE_CURVE ( 'NONE', #100, #63, #171, .T. ) ;
#53 = DATE_AND_TIME ( #141, #181 ) ;
#54 = CARTESIAN_POINT ( 'NONE',  ( 0.000000000000000000, 0.000000000000000000, 0.000000000000000000 ) ) ;
#55 = CC_DESIGN_APPROVAL ( #160, ( #27 ) ) ;
#56 = CARTESIAN_POINT ( 'NONE',  ( 1.750000000000000000, 2.143131898507868297E-16, 253.0000000000000000 ) ) ;
#57 = PERSON ( 'NEURÈENÝ', 'NEURÈENÝ', 'NEURÈENÝ', ('NEURÈENÝ'), ('NEURÈENÝ'), ('NEURÈENÝ') ) ;
#58 = CYLINDRICAL_SURFACE ( 'NONE', #243, 1.750000000000000000 ) ;
#59 = FACE_OUTER_BOUND ( 'NONE', #86, .T. ) ;
#60 = DATE_TIME_ROLE ( 'classification_date' ) ;
#61 = ORIENTED_EDGE ( 'NONE', *, *, #106, .F. ) ;
#62 = DIRECTION ( 'NONE',  ( -1.000000000000000000, 0.000000000000000000, 0.000000000000000000 ) ) ;
#63 = VERTEX_POINT ( 'NONE', #152 ) ;
#64 = DIRECTION ( 'NONE',  ( 1.000000000000000000, 0.000000000000000000, 0.000000000000000000 ) ) ;
#65 = EDGE_CURVE ( 'NONE', #134, #108, #46, .T. ) ;
#66 = CALENDAR_DATE ( 2022, 7, 7 ) ;
#67 = ORIENTED_EDGE ( 'NONE', *, *, #254, .F. ) ;
#68 = ORIENTED_EDGE ( 'NONE', *, *, #246, .T. ) ;
#69 = ORGANIZATION ( 'NEURÈENÝ', 'NEURÈENÝ', '' ) ;
#70 = ADVANCED_FACE ( 'NONE', ( #154 ), #196, .T. ) ;
#71 = CC_DESIGN_PERSON_AND_ORGANIZATION_ASSIGNMENT ( #49, #9, ( #76 ) ) ;
#72 = APPROVAL ( #80, 'NEURÈENÝ' ) ;
#73 = DIRECTION ( 'NONE',  ( 1.000000000000000000, 0.000000000000000000, 0.000000000000000000 ) ) ;
#74 = CIRCLE ( 'NONE', #216, 3.500000000000000000 ) ;
#75 = DIRECTION ( 'NONE',  ( 0.000000000000000000, 0.000000000000000000, 1.000000000000000000 ) ) ;
#76 = PRODUCT ( 'df81', 'df81', '', ( #208 ) ) ;
#77 = FACE_OUTER_BOUND ( 'NONE', #144, .T. ) ;
#78 = ORIENTED_EDGE ( 'NONE', *, *, #253, .T. ) ;
#79 = CARTESIAN_POINT ( 'NONE',  ( 3.500000000000000000, 4.286263797015736595E-16, 0.000000000000000000 ) ) ;
#80 = APPROVAL_STATUS ( 'not_yet_approved' ) ;
#81 = DIRECTION ( 'NONE',  ( 1.000000000000000000, 0.000000000000000000, 0.000000000000000000 ) ) ;
#82 = DIRECTION ( 'NONE',  ( -0.000000000000000000, -0.000000000000000000, -1.000000000000000000 ) ) ;
#83 = DIRECTION ( 'NONE',  ( 1.000000000000000000, 0.000000000000000000, 0.000000000000000000 ) ) ;
#84 = CARTESIAN_POINT ( 'NONE',  ( 3.500000000000000000, 4.286263797015736595E-16, 3.000000000000000000 ) ) ;
#85 = AXIS2_PLACEMENT_3D ( 'NONE', #210, #149, #64 ) ;
#86 = EDGE_LOOP ( 'NONE', ( #136, #218 ) ) ;
#87 = APPROVAL_STATUS ( 'not_yet_approved' ) ;
#88 = CC_DESIGN_APPROVAL ( #72, ( #159 ) ) ;
#89 = PERSON_AND_ORGANIZATION ( #57, #69 ) ;
#90 = COORDINATED_UNIVERSAL_TIME_OFFSET ( 1, 0, .AHEAD. ) ;
#91 = APPROVAL_DATE_TIME ( #225, #160 ) ;
#92 = LINE ( 'NONE', #169, #223 ) ;
#93 = APPROVAL_PERSON_ORGANIZATION ( #5, #72, #38 ) ;
#94 = DIRECTION ( 'NONE',  ( 1.000000000000000000, 0.000000000000000000, 0.000000000000000000 ) ) ;
#95 = AXIS2_PLACEMENT_3D ( 'NONE', #178, #220, #221 ) ;
#96 = ORIENTED_EDGE ( 'NONE', *, *, #52, .F. ) ;
#97 = CARTESIAN_POINT ( 'NONE',  ( 0.000000000000000000, 0.000000000000000000, 253.0000000000000000 ) ) ;
#98 = DIRECTION ( 'NONE',  ( 1.000000000000000000, 0.000000000000000000, -0.000000000000000000 ) ) ;
#99 = CARTESIAN_POINT ( 'NONE',  ( 1.750000000000000000, 2.143131898507868297E-16, 3.000000000000000000 ) ) ;
#100 = VERTEX_POINT ( 'NONE', #170 ) ;
#101 = FACE_OUTER_BOUND ( 'NONE', #150, .T. ) ;
#102 = LOCAL_TIME ( 19, 53, 25.00000000000000000, #204 ) ;
#103 = APPROVAL_ROLE ( '' ) ;
#104 = AXIS2_PLACEMENT_3D ( 'NONE', #197, #200, #83 ) ;
#105 = CALENDAR_DATE ( 2022, 7, 7 ) ;
#106 = EDGE_CURVE ( 'NONE', #41, #236, #126, .T. ) ;
#107 = DIRECTION ( 'NONE',  ( 1.000000000000000000, 0.000000000000000000, 0.000000000000000000 ) ) ;
#108 = VERTEX_POINT ( 'NONE', #191 ) ;
#109 = DIRECTION ( 'NONE',  ( 1.000000000000000000, 0.000000000000000000, 0.000000000000000000 ) ) ;
#110 = CC_DESIGN_DATE_AND_TIME_ASSIGNMENT ( #186, #224, ( #8 ) ) ;
#111 = CARTESIAN_POINT ( 'NONE',  ( 0.000000000000000000, 0.000000000000000000, 3.000000000000000000 ) ) ;
#112 = DIRECTION ( 'NONE',  ( 0.000000000000000000, 0.000000000000000000, 1.000000000000000000 ) ) ;
#113 = CLOSED_SHELL ( 'NONE', ( #180, #13, #7, #14, #125, #227, #70 ) ) ;
#114 = DIRECTION ( 'NONE',  ( 0.000000000000000000, 0.000000000000000000, 1.000000000000000000 ) ) ;
#115 = CARTESIAN_POINT ( 'NONE',  ( -1.750000000000000000, 0.000000000000000000, 3.000000000000000000 ) ) ;
#116 = CARTESIAN_POINT ( 'NONE',  ( 0.000000000000000000, 0.000000000000000000, 253.0000000000000000 ) ) ;
#117 = VERTEX_POINT ( 'NONE', #115 ) ;
#118 = DIRECTION ( 'NONE',  ( 0.000000000000000000, 0.000000000000000000, 1.000000000000000000 ) ) ;
#119 = EDGE_CURVE ( 'NONE', #63, #138, #34, .T. ) ;
#120 =( NAMED_UNIT ( * ) PLANE_ANGLE_UNIT ( ) SI_UNIT ( $, .RADIAN. ) );
#121 = DESIGN_CONTEXT ( 'detailed design', #131, 'design' ) ;
#122 = PERSON_AND_ORGANIZATION_ROLE ( 'classification_officer' ) ;
#123 = CC_DESIGN_APPROVAL ( #147, ( #8 ) ) ;
#124 = PERSON_AND_ORGANIZATION_ROLE ( 'creator' ) ;
#125 = ADVANCED_FACE ( 'NONE', ( #59 ), #1, .F. ) ;
#126 = CIRCLE ( 'NONE', #21, 3.500000000000000000 ) ;
#127 = DIRECTION ( 'NONE',  ( 0.000000000000000000, 0.000000000000000000, 1.000000000000000000 ) ) ;
#128 = AXIS2_PLACEMENT_3D ( 'NONE', #37, #112, #194 ) ;
#129 = DIRECTION ( 'NONE',  ( 0.000000000000000000, 0.000000000000000000, 1.000000000000000000 ) ) ;
#130 = CARTESIAN_POINT ( 'NONE',  ( 0.000000000000000000, 0.000000000000000000, 253.0000000000000000 ) ) ;
#131 = APPLICATION_CONTEXT ( 'configuration controlled 3d designs of mechanical parts and assemblies' ) ;
#132 = DIRECTION ( 'NONE',  ( 1.000000000000000000, 0.000000000000000000, -0.000000000000000000 ) ) ;
#133 = APPROVAL_PERSON_ORGANIZATION ( #89, #160, #162 ) ;
#134 = VERTEX_POINT ( 'NONE', #79 ) ;
#135 = DIRECTION ( 'NONE',  ( 0.000000000000000000, 0.000000000000000000, 1.000000000000000000 ) ) ;
#136 = ORIENTED_EDGE ( 'NONE', *, *, #145, .F. ) ;
#137 = DIRECTION ( 'NONE',  ( -0.000000000000000000, -0.000000000000000000, -1.000000000000000000 ) ) ;
#138 = VERTEX_POINT ( 'NONE', #99 ) ;
#139 = ORIENTED_EDGE ( 'NONE', *, *, #201, .T. ) ;
#140 = CIRCLE ( 'NONE', #202, 1.750000000000000000 ) ;
#141 = CALENDAR_DATE ( 2022, 7, 7 ) ;
#142 = APPLICATION_PROTOCOL_DEFINITION ( 'international standard', 'config_control_design', 1994, #131 ) ;
#143 = PERSON_AND_ORGANIZATION ( #57, #69 ) ;
#144 = EDGE_LOOP ( 'NONE', ( #28, #195, #214, #2 ) ) ;
#145 = EDGE_CURVE ( 'NONE', #108, #134, #74, .T. ) ;
#146 = PRODUCT_DEFINITION_SHAPE ( 'NONE', 'NONE',  #8 ) ;
#147 = APPROVAL ( #87, 'NEURÈENÝ' ) ;
#148 = DIRECTION ( 'NONE',  ( 0.000000000000000000, 0.000000000000000000, 1.000000000000000000 ) ) ;
#149 = DIRECTION ( 'NONE',  ( 0.000000000000000000, 0.000000000000000000, 1.000000000000000000 ) ) ;
#150 = EDGE_LOOP ( 'NONE', ( #61, #199, #222, #175 ) ) ;
#151 = DIRECTION ( 'NONE',  ( -0.000000000000000000, -0.000000000000000000, -1.000000000000000000 ) ) ;
#152 = CARTESIAN_POINT ( 'NONE',  ( 1.750000000000000000, 2.143131898507868297E-16, 253.0000000000000000 ) ) ;
#153 = CARTESIAN_POINT ( 'NONE',  ( 0.000000000000000000, 0.000000000000000000, 0.000000000000000000 ) ) ;
#154 = FACE_OUTER_BOUND ( 'NONE', #42, .T. ) ;
#155 = DATE_AND_TIME ( #66, #33 ) ;
#156 = CARTESIAN_POINT ( 'NONE',  ( 0.000000000000000000, 0.000000000000000000, 3.000000000000000000 ) ) ;
#157 = ADVANCED_BREP_SHAPE_REPRESENTATION ( 'df81', ( #238, #168 ), #205 ) ;
#158 = APPROVAL_DATE_TIME ( #155, #72 ) ;
#159 = SECURITY_CLASSIFICATION ( '', '', #31 ) ;
#160 = APPROVAL ( #164, 'NEURÈENÝ' ) ;
#161 = VECTOR ( 'NONE', #3, 1000.000000000000000 ) ;
#162 = APPROVAL_ROLE ( '' ) ;
#163 = LOCAL_TIME ( 19, 53, 25.00000000000000000, #51 ) ;
#164 = APPROVAL_STATUS ( 'not_yet_approved' ) ;
#165 = CALENDAR_DATE ( 2022, 7, 7 ) ;
#166 = CALENDAR_DATE ( 2022, 7, 7 ) ;
#167 = CIRCLE ( 'NONE', #85, 1.750000000000000000 ) ;
#168 = AXIS2_PLACEMENT_3D ( 'NONE', #54, #127, #73 ) ;
#169 = CARTESIAN_POINT ( 'NONE',  ( -1.750000000000000000, 0.000000000000000000, 253.0000000000000000 ) ) ;
#170 = CARTESIAN_POINT ( 'NONE',  ( -1.750000000000000000, 0.000000000000000000, 253.0000000000000000 ) ) ;
#171 = CIRCLE ( 'NONE', #11, 1.750000000000000000 ) ;
#172 = EDGE_LOOP ( 'NONE', ( #78, #239 ) ) ;
#173 = CARTESIAN_POINT ( 'NONE',  ( 0.000000000000000000, 0.000000000000000000, 3.000000000000000000 ) ) ;
#174 = ORIENTED_EDGE ( 'NONE', *, *, #192, .F. ) ;
#175 = ORIENTED_EDGE ( 'NONE', *, *, #246, .F. ) ;
#176 = DIRECTION ( 'NONE',  ( -0.000000000000000000, -0.000000000000000000, -1.000000000000000000 ) ) ;
#177 = ORIENTED_EDGE ( 'NONE', *, *, #52, .T. ) ;
#178 = CARTESIAN_POINT ( 'NONE',  ( 0.000000000000000000, 0.000000000000000000, 3.000000000000000000 ) ) ;
#179 = UNCERTAINTY_MEASURE_WITH_UNIT (LENGTH_MEASURE( 1.000000000000000082E-05 ), #248, 'distance_accuracy_value', 'NONE');
#180 = ADVANCED_FACE ( 'NONE', ( #77 ), #58, .T. ) ;
#181 = LOCAL_TIME ( 19, 53, 25.00000000000000000, #185 ) ;
#182 = CC_DESIGN_PERSON_AND_ORGANIZATION_ASSIGNMENT ( #143, #124, ( #8 ) ) ;
#183 = AXIS2_PLACEMENT_3D ( 'NONE', #153, #22, #132 ) ;
#184 = APPLICATION_PROTOCOL_DEFINITION ( 'international standard', 'config_control_design', 1994, #251 ) ;
#185 = COORDINATED_UNIVERSAL_TIME_OFFSET ( 1, 0, .AHEAD. ) ;
#186 = DATE_AND_TIME ( #105, #102 ) ;
#187 = EDGE_LOOP ( 'NONE', ( #20, #174 ) ) ;
#188 = CC_DESIGN_DATE_AND_TIME_ASSIGNMENT ( #249, #60, ( #159 ) ) ;
#189 = CYLINDRICAL_SURFACE ( 'NONE', #209, 1.750000000000000000 ) ;
#190 = CIRCLE ( 'NONE', #128, 1.750000000000000000 ) ;
#191 = CARTESIAN_POINT ( 'NONE',  ( -3.500000000000000000, 0.000000000000000000, 0.000000000000000000 ) ) ;
#192 = EDGE_CURVE ( 'NONE', #138, #117, #167, .T. ) ;
#193 = ORIENTED_EDGE ( 'NONE', *, *, #145, .T. ) ;
#194 = DIRECTION ( 'NONE',  ( 1.000000000000000000, 0.000000000000000000, 0.000000000000000000 ) ) ;
#195 = ORIENTED_EDGE ( 'NONE', *, *, #119, .T. ) ;
#196 = PLANE ( 'NONE',  #245 ) ;
#197 = CARTESIAN_POINT ( 'NONE',  ( 0.000000000000000000, 0.000000000000000000, 0.000000000000000000 ) ) ;
#198 = LOCAL_TIME ( 19, 53, 25.00000000000000000, #90 ) ;
#199 = ORIENTED_EDGE ( 'NONE', *, *, #254, .T. ) ;
#200 = DIRECTION ( 'NONE',  ( 0.000000000000000000, 0.000000000000000000, 1.000000000000000000 ) ) ;
#201 = EDGE_CURVE ( 'NONE', #100, #117, #92, .T. ) ;
#202 = AXIS2_PLACEMENT_3D ( 'NONE', #130, #230, #109 ) ;
#203 =( NAMED_UNIT ( * ) SI_UNIT ( $, .STERADIAN. ) SOLID_ANGLE_UNIT ( ) );
#204 = COORDINATED_UNIVERSAL_TIME_OFFSET ( 1, 0, .AHEAD. ) ;
#205 =( GEOMETRIC_REPRESENTATION_CONTEXT ( 3 ) GLOBAL_UNCERTAINTY_ASSIGNED_CONTEXT ( ( #179 ) ) GLOBAL_UNIT_ASSIGNED_CONTEXT ( ( #248, #120, #203 ) ) REPRESENTATION_CONTEXT ( 'NONE', 'WORKASPACE' ) );
#206 = PERSON_AND_ORGANIZATION_ROLE ( 'creator' ) ;
#207 = EDGE_CURVE ( 'NONE', #63, #100, #140, .T. ) ;
#208 = MECHANICAL_CONTEXT ( 'NONE', #251, 'mechanical' ) ;
#209 = AXIS2_PLACEMENT_3D ( 'NONE', #19, #151, #62 ) ;
#210 = CARTESIAN_POINT ( 'NONE',  ( 0.000000000000000000, 0.000000000000000000, 3.000000000000000000 ) ) ;
#211 = CARTESIAN_POINT ( 'NONE',  ( 0.000000000000000000, 0.000000000000000000, 0.000000000000000000 ) ) ;
#212 = ORIENTED_EDGE ( 'NONE', *, *, #253, .F. ) ;
#213 = CARTESIAN_POINT ( 'NONE',  ( -3.500000000000000000, 0.000000000000000000, 3.000000000000000000 ) ) ;
#214 = ORIENTED_EDGE ( 'NONE', *, *, #192, .T. ) ;
#215 = DIRECTION ( 'NONE',  ( 1.000000000000000000, 0.000000000000000000, 0.000000000000000000 ) ) ;
#216 = AXIS2_PLACEMENT_3D ( 'NONE', #211, #148, #94 ) ;
#217 = SHAPE_DEFINITION_REPRESENTATION ( #146, #157 ) ;
#218 = ORIENTED_EDGE ( 'NONE', *, *, #65, .F. ) ;
#219 = FACE_OUTER_BOUND ( 'NONE', #15, .T. ) ;
#220 = DIRECTION ( 'NONE',  ( -0.000000000000000000, -0.000000000000000000, -1.000000000000000000 ) ) ;
#221 = DIRECTION ( 'NONE',  ( -1.000000000000000000, 0.000000000000000000, 0.000000000000000000 ) ) ;
#222 = ORIENTED_EDGE ( 'NONE', *, *, #65, .T. ) ;
#223 = VECTOR ( 'NONE', #137, 1000.000000000000000 ) ;
#224 = DATE_TIME_ROLE ( 'creation_date' ) ;
#225 = DATE_AND_TIME ( #166, #163 ) ;
#226 = PERSON_AND_ORGANIZATION ( #57, #69 ) ;
#227 = ADVANCED_FACE ( 'NONE', ( #219 ), #189, .T. ) ;
#228 = ORIENTED_EDGE ( 'NONE', *, *, #207, .T. ) ;
#229 = CC_DESIGN_SECURITY_CLASSIFICATION ( #159, ( #27 ) ) ;
#230 = DIRECTION ( 'NONE',  ( 0.000000000000000000, 0.000000000000000000, 1.000000000000000000 ) ) ;
#231 = AXIS2_PLACEMENT_3D ( 'NONE', #156, #114, #98 ) ;
#232 = CARTESIAN_POINT ( 'NONE',  ( 0.000000000000000000, 0.000000000000000000, 253.0000000000000000 ) ) ;
#233 = ORIENTED_EDGE ( 'NONE', *, *, #119, .F. ) ;
#234 = PRODUCT_RELATED_PRODUCT_CATEGORY ( 'detail', '', ( #76 ) ) ;
#235 = LINE ( 'NONE', #213, #48 ) ;
#236 = VERTEX_POINT ( 'NONE', #16 ) ;
#237 = CARTESIAN_POINT ( 'NONE',  ( 0.000000000000000000, 0.000000000000000000, 3.000000000000000000 ) ) ;
#238 = MANIFOLD_SOLID_BREP ( 'Pøidat vysunutím3', #113 ) ;
#239 = ORIENTED_EDGE ( 'NONE', *, *, #106, .T. ) ;
#240 = DIRECTION ( 'NONE',  ( 1.000000000000000000, 0.000000000000000000, -0.000000000000000000 ) ) ;
#241 = ORIENTED_EDGE ( 'NONE', *, *, #252, .T. ) ;
#242 = CYLINDRICAL_SURFACE ( 'NONE', #32, 3.500000000000000000 ) ;
#243 = AXIS2_PLACEMENT_3D ( 'NONE', #97, #35, #255 ) ;
#244 = CIRCLE ( 'NONE', #30, 3.500000000000000000 ) ;
#245 = AXIS2_PLACEMENT_3D ( 'NONE', #232, #75, #240 ) ;
#246 = EDGE_CURVE ( 'NONE', #236, #108, #235, .T. ) ;
#247 = PERSON_AND_ORGANIZATION ( #57, #69 ) ;
#248 =( LENGTH_UNIT ( ) NAMED_UNIT ( * ) SI_UNIT ( .MILLI., .METRE. ) );
#249 = DATE_AND_TIME ( #165, #198 ) ;
#250 = APPROVAL_PERSON_ORGANIZATION ( #226, #147, #103 ) ;
#251 = APPLICATION_CONTEXT ( 'configuration controlled 3d designs of mechanical parts and assemblies' ) ;
#252 = EDGE_CURVE ( 'NONE', #117, #138, #190, .T. ) ;
#253 = EDGE_CURVE ( 'NONE', #236, #41, #244, .T. ) ;
#254 = EDGE_CURVE ( 'NONE', #41, #134, #40, .T. ) ;
#255 = DIRECTION ( 'NONE',  ( -1.000000000000000000, 0.000000000000000000, 0.000000000000000000 ) ) ;
ENDSEC;
END-ISO-10303-21;
