ISO-10303-21;
HEADER;
FILE_DESCRIPTION (( 'STEP AP203' ),
    '1' );
FILE_NAME ('3a1c.STEP',
    '2022-07-07T17:42:24',
    ( '' ),
    ( '' ),
    'SwSTEP 2.0',
    'SolidWorks 2019',
    '' );
FILE_SCHEMA (( 'CONFIG_CONTROL_DESIGN' ));
ENDSEC;

DATA;
#1 = EDGE_CURVE ( 'NONE', #46, #157, #75, .T. ) ;
#2 = DIRECTION ( 'NONE',  ( 0.000000000000000000, 0.000000000000000000, 1.000000000000000000 ) ) ;
#3 = CIRCLE ( 'NONE', #69, 5.000000000000000000 ) ;
#4 = ORGANIZATION ( 'NEURÈENÝ', 'NEURÈENÝ', '' ) ;
#5 = CYLINDRICAL_SURFACE ( 'NONE', #118, 2.750000000000000000 ) ;
#6 = FACE_OUTER_BOUND ( 'NONE', #215, .T. ) ;
#7 = FACE_OUTER_BOUND ( 'NONE', #39, .T. ) ;
#8 = CIRCLE ( 'NONE', #187, 2.750000000000000000 ) ;
#9 = FACE_OUTER_BOUND ( 'NONE', #38, .T. ) ;
#10 = PLANE ( 'NONE',  #183 ) ;
#11 = EDGE_CURVE ( 'NONE', #65, #232, #141, .T. ) ;
#12 = APPROVAL_DATE_TIME ( #191, #29 ) ;
#13 = APPROVAL_DATE_TIME ( #72, #49 ) ;
#14 = ORIENTED_EDGE ( 'NONE', *, *, #176, .F. ) ;
#15 = COORDINATED_UNIVERSAL_TIME_OFFSET ( 1, 0, .AHEAD. ) ;
#16 = ORIENTED_EDGE ( 'NONE', *, *, #95, .F. ) ;
#17 = ORIENTED_EDGE ( 'NONE', *, *, #210, .T. ) ;
#18 = DIRECTION ( 'NONE',  ( 1.000000000000000000, 0.000000000000000000, 0.000000000000000000 ) ) ;
#19 = ORIENTED_EDGE ( 'NONE', *, *, #176, .T. ) ;
#20 = DIRECTION ( 'NONE',  ( 0.000000000000000000, 0.000000000000000000, 1.000000000000000000 ) ) ;
#21 = CARTESIAN_POINT ( 'NONE',  ( 0.000000000000000000, 0.000000000000000000, 0.000000000000000000 ) ) ;
#22 = EDGE_CURVE ( 'NONE', #65, #126, #80, .T. ) ;
#23 = CARTESIAN_POINT ( 'NONE',  ( -5.000000000000000000, 0.000000000000000000, 0.000000000000000000 ) ) ;
#24 = MECHANICAL_CONTEXT ( 'NONE', #231, 'mechanical' ) ;
#25 = SECURITY_CLASSIFICATION ( '', '', #90 ) ;
#26 = DIRECTION ( 'NONE',  ( 0.000000000000000000, 0.000000000000000000, 1.000000000000000000 ) ) ;
#27 = DATE_AND_TIME ( #170, #171 ) ;
#28 =( NAMED_UNIT ( * ) PLANE_ANGLE_UNIT ( ) SI_UNIT ( $, .RADIAN. ) );
#29 = APPROVAL ( #192, 'NEURÈENÝ' ) ;
#30 = PERSON_AND_ORGANIZATION_ROLE ( 'design_supplier' ) ;
#31 = VECTOR ( 'NONE', #79, 1000.000000000000000 ) ;
#32 = APPROVAL_ROLE ( '' ) ;
#33 = ORIENTED_EDGE ( 'NONE', *, *, #116, .F. ) ;
#34 = APPROVAL_PERSON_ORGANIZATION ( #186, #178, #86 ) ;
#35 = DIRECTION ( 'NONE',  ( 1.000000000000000000, 0.000000000000000000, 0.000000000000000000 ) ) ;
#36 = CARTESIAN_POINT ( 'NONE',  ( -2.750000000000000000, 0.000000000000000000, 253.0000000000000000 ) ) ;
#37 = ORIENTED_EDGE ( 'NONE', *, *, #22, .F. ) ;
#38 = EDGE_LOOP ( 'NONE', ( #156, #200, #121, #229 ) ) ;
#39 = EDGE_LOOP ( 'NONE', ( #37, #180, #249, #53 ) ) ;
#40 = VECTOR ( 'NONE', #206, 1000.000000000000000 ) ;
#41 = FACE_OUTER_BOUND ( 'NONE', #235, .T. ) ;
#42 = CARTESIAN_POINT ( 'NONE',  ( 0.000000000000000000, 0.000000000000000000, 3.000000000000000000 ) ) ;
#43 = DIRECTION ( 'NONE',  ( -1.000000000000000000, 0.000000000000000000, 0.000000000000000000 ) ) ;
#44 = CC_DESIGN_SECURITY_CLASSIFICATION ( #25, ( #195 ) ) ;
#45 = DATE_AND_TIME ( #152, #143 ) ;
#46 = VERTEX_POINT ( 'NONE', #36 ) ;
#47 = EDGE_CURVE ( 'NONE', #126, #65, #133, .T. ) ;
#48 = LOCAL_TIME ( 19, 42, 24.00000000000000000, #74 ) ;
#49 = APPROVAL ( #60, 'NEURÈENÝ' ) ;
#50 = ADVANCED_FACE ( 'NONE', ( #96, #78 ), #219, .T. ) ;
#51 = DIRECTION ( 'NONE',  ( 1.000000000000000000, 0.000000000000000000, 0.000000000000000000 ) ) ;
#52 = APPROVAL_ROLE ( '' ) ;
#53 = ORIENTED_EDGE ( 'NONE', *, *, #213, .F. ) ;
#54 = CARTESIAN_POINT ( 'NONE',  ( 0.000000000000000000, 0.000000000000000000, 253.0000000000000000 ) ) ;
#55 = VERTEX_POINT ( 'NONE', #158 ) ;
#56 = CARTESIAN_POINT ( 'NONE',  ( -2.750000000000000000, 0.000000000000000000, 3.000000000000000000 ) ) ;
#57 = ADVANCED_FACE ( 'NONE', ( #233 ), #199, .T. ) ;
#58 = LINE ( 'NONE', #146, #190 ) ;
#59 = CARTESIAN_POINT ( 'NONE',  ( -5.000000000000000000, 0.000000000000000000, 3.000000000000000000 ) ) ;
#60 = APPROVAL_STATUS ( 'not_yet_approved' ) ;
#61 = CARTESIAN_POINT ( 'NONE',  ( 0.000000000000000000, 0.000000000000000000, 3.000000000000000000 ) ) ;
#62 = CARTESIAN_POINT ( 'NONE',  ( 0.000000000000000000, 0.000000000000000000, 0.000000000000000000 ) ) ;
#63 = VECTOR ( 'NONE', #135, 1000.000000000000000 ) ;
#64 = CC_DESIGN_PERSON_AND_ORGANIZATION_ASSIGNMENT ( #173, #30, ( #195 ) ) ;
#65 = VERTEX_POINT ( 'NONE', #81 ) ;
#66 = EDGE_CURVE ( 'NONE', #157, #46, #216, .T. ) ;
#67 = SHAPE_DEFINITION_REPRESENTATION ( #209, #182 ) ;
#68 = CIRCLE ( 'NONE', #106, 5.000000000000000000 ) ;
#69 = AXIS2_PLACEMENT_3D ( 'NONE', #202, #128, #184 ) ;
#70 = PERSON_AND_ORGANIZATION_ROLE ( 'classification_officer' ) ;
#71 = ORIENTED_EDGE ( 'NONE', *, *, #174, .F. ) ;
#72 = DATE_AND_TIME ( #196, #154 ) ;
#73 = ORIENTED_EDGE ( 'NONE', *, *, #47, .T. ) ;
#74 = COORDINATED_UNIVERSAL_TIME_OFFSET ( 1, 0, .AHEAD. ) ;
#75 = CIRCLE ( 'NONE', #99, 2.750000000000000000 ) ;
#76 = AXIS2_PLACEMENT_3D ( 'NONE', #165, #149, #132 ) ;
#77 = ORIENTED_EDGE ( 'NONE', *, *, #1, .T. ) ;
#78 = FACE_OUTER_BOUND ( 'NONE', #255, .T. ) ;
#79 = DIRECTION ( 'NONE',  ( -0.000000000000000000, -0.000000000000000000, -1.000000000000000000 ) ) ;
#80 = CIRCLE ( 'NONE', #208, 5.000000000000000000 ) ;
#81 = CARTESIAN_POINT ( 'NONE',  ( 5.000000000000000000, 6.123233995736766282E-16, 3.000000000000000000 ) ) ;
#82 = FACE_OUTER_BOUND ( 'NONE', #227, .T. ) ;
#83 = PRODUCT ( '3a1c', '3a1c', '', ( #24 ) ) ;
#84 = CARTESIAN_POINT ( 'NONE',  ( -2.750000000000000000, 0.000000000000000000, 253.0000000000000000 ) ) ;
#85 = DIRECTION ( 'NONE',  ( -0.000000000000000000, -0.000000000000000000, -1.000000000000000000 ) ) ;
#86 = APPROVAL_ROLE ( '' ) ;
#87 = LINE ( 'NONE', #84, #40 ) ;
#88 = DATE_TIME_ROLE ( 'creation_date' ) ;
#89 = DIRECTION ( 'NONE',  ( 1.000000000000000000, 0.000000000000000000, 0.000000000000000000 ) ) ;
#90 = SECURITY_CLASSIFICATION_LEVEL ( 'unclassified' ) ;
#91 = VERTEX_POINT ( 'NONE', #56 ) ;
#92 = CALENDAR_DATE ( 2022, 7, 7 ) ;
#93 = EDGE_LOOP ( 'NONE', ( #125, #120, #19, #153 ) ) ;
#94 = AXIS2_PLACEMENT_3D ( 'NONE', #201, #97, #35 ) ;
#95 = EDGE_CURVE ( 'NONE', #55, #91, #8, .T. ) ;
#96 = FACE_BOUND ( 'NONE', #218, .T. ) ;
#97 = DIRECTION ( 'NONE',  ( 0.000000000000000000, 0.000000000000000000, 1.000000000000000000 ) ) ;
#98 = ORIENTED_EDGE ( 'NONE', *, *, #22, .T. ) ;
#99 = AXIS2_PLACEMENT_3D ( 'NONE', #198, #181, #51 ) ;
#100 = DIRECTION ( 'NONE',  ( 1.000000000000000000, 0.000000000000000000, 0.000000000000000000 ) ) ;
#101 =( GEOMETRIC_REPRESENTATION_CONTEXT ( 3 ) GLOBAL_UNCERTAINTY_ASSIGNED_CONTEXT ( ( #148 ) ) GLOBAL_UNIT_ASSIGNED_CONTEXT ( ( #109, #28, #169 ) ) REPRESENTATION_CONTEXT ( 'NONE', 'WORKASPACE' ) );
#102 = CC_DESIGN_PERSON_AND_ORGANIZATION_ASSIGNMENT ( #248, #70, ( #25 ) ) ;
#103 = CYLINDRICAL_SURFACE ( 'NONE', #117, 5.000000000000000000 ) ;
#104 = PLANE ( 'NONE',  #76 ) ;
#105 = DIRECTION ( 'NONE',  ( 0.000000000000000000, 0.000000000000000000, 1.000000000000000000 ) ) ;
#106 = AXIS2_PLACEMENT_3D ( 'NONE', #21, #105, #147 ) ;
#107 = PERSON_AND_ORGANIZATION ( #254, #4 ) ;
#108 = CC_DESIGN_APPROVAL ( #49, ( #195 ) ) ;
#109 =( LENGTH_UNIT ( ) NAMED_UNIT ( * ) SI_UNIT ( .MILLI., .METRE. ) );
#110 = APPROVAL_DATE_TIME ( #27, #178 ) ;
#111 = DESIGN_CONTEXT ( 'detailed design', #162, 'design' ) ;
#112 = AXIS2_PLACEMENT_3D ( 'NONE', #61, #26, #89 ) ;
#113 = APPROVAL_PERSON_ORGANIZATION ( #241, #49, #32 ) ;
#114 = PRODUCT_DEFINITION ( 'NEZNÁMÝ', '', #195, #111 ) ;
#115 = PERSON_AND_ORGANIZATION ( #254, #4 ) ;
#116 = EDGE_CURVE ( 'NONE', #207, #232, #68, .T. ) ;
#117 = AXIS2_PLACEMENT_3D ( 'NONE', #185, #129, #223 ) ;
#118 = AXIS2_PLACEMENT_3D ( 'NONE', #203, #85, #131 ) ;
#119 = PERSON_AND_ORGANIZATION ( #254, #4 ) ;
#120 = ORIENTED_EDGE ( 'NONE', *, *, #1, .F. ) ;
#121 = ORIENTED_EDGE ( 'NONE', *, *, #213, .T. ) ;
#122 = AXIS2_PLACEMENT_3D ( 'NONE', #161, #177, #236 ) ;
#123 = CARTESIAN_POINT ( 'NONE',  ( 0.000000000000000000, 0.000000000000000000, 3.000000000000000000 ) ) ;
#124 = CC_DESIGN_APPROVAL ( #29, ( #25 ) ) ;
#125 = ORIENTED_EDGE ( 'NONE', *, *, #210, .F. ) ;
#126 = VERTEX_POINT ( 'NONE', #188 ) ;
#127 = CC_DESIGN_PERSON_AND_ORGANIZATION_ASSIGNMENT ( #167, #134, ( #83 ) ) ;
#128 = DIRECTION ( 'NONE',  ( 0.000000000000000000, 0.000000000000000000, 1.000000000000000000 ) ) ;
#129 = DIRECTION ( 'NONE',  ( -0.000000000000000000, -0.000000000000000000, -1.000000000000000000 ) ) ;
#130 = ADVANCED_FACE ( 'NONE', ( #7 ), #103, .T. ) ;
#131 = DIRECTION ( 'NONE',  ( -1.000000000000000000, 0.000000000000000000, 0.000000000000000000 ) ) ;
#132 = DIRECTION ( 'NONE',  ( 1.000000000000000000, 0.000000000000000000, -0.000000000000000000 ) ) ;
#133 = CIRCLE ( 'NONE', #94, 5.000000000000000000 ) ;
#134 = PERSON_AND_ORGANIZATION_ROLE ( 'design_owner' ) ;
#135 = DIRECTION ( 'NONE',  ( -0.000000000000000000, -0.000000000000000000, -1.000000000000000000 ) ) ;
#136 = ORIENTED_EDGE ( 'NONE', *, *, #95, .T. ) ;
#137 = PERSON_AND_ORGANIZATION_ROLE ( 'creator' ) ;
#138 = AXIS2_PLACEMENT_3D ( 'NONE', #123, #2, #179 ) ;
#139 = PERSON_AND_ORGANIZATION_ROLE ( 'creator' ) ;
#140 = CARTESIAN_POINT ( 'NONE',  ( 5.000000000000000000, 6.123233995736766282E-16, 3.000000000000000000 ) ) ;
#141 = LINE ( 'NONE', #140, #31 ) ;
#142 = DIRECTION ( 'NONE',  ( -0.000000000000000000, -0.000000000000000000, -1.000000000000000000 ) ) ;
#143 = LOCAL_TIME ( 19, 42, 24.00000000000000000, #189 ) ;
#144 = CARTESIAN_POINT ( 'NONE',  ( 0.000000000000000000, 0.000000000000000000, 3.000000000000000000 ) ) ;
#145 = CC_DESIGN_PERSON_AND_ORGANIZATION_ASSIGNMENT ( #107, #137, ( #114 ) ) ;
#146 = CARTESIAN_POINT ( 'NONE',  ( 2.750000000000000000, 3.367778697655221012E-16, 253.0000000000000000 ) ) ;
#147 = DIRECTION ( 'NONE',  ( 1.000000000000000000, 0.000000000000000000, 0.000000000000000000 ) ) ;
#148 = UNCERTAINTY_MEASURE_WITH_UNIT (LENGTH_MEASURE( 1.000000000000000082E-05 ), #109, 'distance_accuracy_value', 'NONE');
#149 = DIRECTION ( 'NONE',  ( 0.000000000000000000, 0.000000000000000000, 1.000000000000000000 ) ) ;
#150 = MANIFOLD_SOLID_BREP ( 'Pøidat vysunutím3', #204 ) ;
#151 = AXIS2_PLACEMENT_3D ( 'NONE', #62, #226, #172 ) ;
#152 = CALENDAR_DATE ( 2022, 7, 7 ) ;
#153 = ORIENTED_EDGE ( 'NONE', *, *, #245, .T. ) ;
#154 = LOCAL_TIME ( 19, 42, 24.00000000000000000, #15 ) ;
#155 = ADVANCED_FACE ( 'NONE', ( #9 ), #238, .T. ) ;
#156 = ORIENTED_EDGE ( 'NONE', *, *, #11, .F. ) ;
#157 = VERTEX_POINT ( 'NONE', #224 ) ;
#158 = CARTESIAN_POINT ( 'NONE',  ( 2.750000000000000000, 3.367778697655221012E-16, 3.000000000000000000 ) ) ;
#159 = ADVANCED_FACE ( 'NONE', ( #82 ), #5, .T. ) ;
#160 = DIRECTION ( 'NONE',  ( -1.000000000000000000, 0.000000000000000000, 0.000000000000000000 ) ) ;
#161 = CARTESIAN_POINT ( 'NONE',  ( 0.000000000000000000, 0.000000000000000000, 253.0000000000000000 ) ) ;
#162 = APPLICATION_CONTEXT ( 'configuration controlled 3d designs of mechanical parts and assemblies' ) ;
#163 = CARTESIAN_POINT ( 'NONE',  ( 0.000000000000000000, 0.000000000000000000, 253.0000000000000000 ) ) ;
#164 = DIRECTION ( 'NONE',  ( 1.000000000000000000, 0.000000000000000000, -0.000000000000000000 ) ) ;
#165 = CARTESIAN_POINT ( 'NONE',  ( 0.000000000000000000, 0.000000000000000000, 0.000000000000000000 ) ) ;
#166 = APPROVAL_PERSON_ORGANIZATION ( #115, #29, #52 ) ;
#167 = PERSON_AND_ORGANIZATION ( #254, #4 ) ;
#168 = DIRECTION ( 'NONE',  ( 0.000000000000000000, 0.000000000000000000, 1.000000000000000000 ) ) ;
#169 =( NAMED_UNIT ( * ) SI_UNIT ( $, .STERADIAN. ) SOLID_ANGLE_UNIT ( ) );
#170 = CALENDAR_DATE ( 2022, 7, 7 ) ;
#171 = LOCAL_TIME ( 19, 42, 24.00000000000000000, #239 ) ;
#172 = DIRECTION ( 'NONE',  ( 1.000000000000000000, 0.000000000000000000, 0.000000000000000000 ) ) ;
#173 = PERSON_AND_ORGANIZATION ( #254, #4 ) ;
#174 = EDGE_CURVE ( 'NONE', #232, #207, #3, .T. ) ;
#175 = CALENDAR_DATE ( 2022, 7, 7 ) ;
#176 = EDGE_CURVE ( 'NONE', #46, #91, #87, .T. ) ;
#177 = DIRECTION ( 'NONE',  ( 0.000000000000000000, 0.000000000000000000, 1.000000000000000000 ) ) ;
#178 = APPROVAL ( #225, 'NEURÈENÝ' ) ;
#179 = DIRECTION ( 'NONE',  ( 1.000000000000000000, 0.000000000000000000, -0.000000000000000000 ) ) ;
#180 = ORIENTED_EDGE ( 'NONE', *, *, #11, .T. ) ;
#181 = DIRECTION ( 'NONE',  ( 0.000000000000000000, 0.000000000000000000, 1.000000000000000000 ) ) ;
#182 = ADVANCED_BREP_SHAPE_REPRESENTATION ( '3a1c', ( #150, #151 ), #101 ) ;
#183 = AXIS2_PLACEMENT_3D ( 'NONE', #163, #168, #164 ) ;
#184 = DIRECTION ( 'NONE',  ( 1.000000000000000000, 0.000000000000000000, 0.000000000000000000 ) ) ;
#185 = CARTESIAN_POINT ( 'NONE',  ( 0.000000000000000000, 0.000000000000000000, 3.000000000000000000 ) ) ;
#186 = PERSON_AND_ORGANIZATION ( #254, #4 ) ;
#187 = AXIS2_PLACEMENT_3D ( 'NONE', #144, #20, #100 ) ;
#188 = CARTESIAN_POINT ( 'NONE',  ( -5.000000000000000000, 0.000000000000000000, 3.000000000000000000 ) ) ;
#189 = COORDINATED_UNIVERSAL_TIME_OFFSET ( 1, 0, .AHEAD. ) ;
#190 = VECTOR ( 'NONE', #222, 1000.000000000000000 ) ;
#191 = DATE_AND_TIME ( #175, #48 ) ;
#192 = APPROVAL_STATUS ( 'not_yet_approved' ) ;
#193 = ADVANCED_FACE ( 'NONE', ( #6 ), #10, .T. ) ;
#194 = COORDINATED_UNIVERSAL_TIME_OFFSET ( 1, 0, .AHEAD. ) ;
#195 = PRODUCT_DEFINITION_FORMATION_WITH_SPECIFIED_SOURCE ( 'LIBOVOLNÝ', '', #83, .NOT_KNOWN. ) ;
#196 = CALENDAR_DATE ( 2022, 7, 7 ) ;
#197 = ORIENTED_EDGE ( 'NONE', *, *, #245, .F. ) ;
#198 = CARTESIAN_POINT ( 'NONE',  ( 0.000000000000000000, 0.000000000000000000, 253.0000000000000000 ) ) ;
#199 = CYLINDRICAL_SURFACE ( 'NONE', #228, 2.750000000000000000 ) ;
#200 = ORIENTED_EDGE ( 'NONE', *, *, #47, .F. ) ;
#201 = CARTESIAN_POINT ( 'NONE',  ( 0.000000000000000000, 0.000000000000000000, 3.000000000000000000 ) ) ;
#202 = CARTESIAN_POINT ( 'NONE',  ( 0.000000000000000000, 0.000000000000000000, 0.000000000000000000 ) ) ;
#203 = CARTESIAN_POINT ( 'NONE',  ( 0.000000000000000000, 0.000000000000000000, 253.0000000000000000 ) ) ;
#204 = CLOSED_SHELL ( 'NONE', ( #159, #130, #155, #50, #220, #57, #193 ) ) ;
#205 = CARTESIAN_POINT ( 'NONE',  ( 5.000000000000000000, 6.123233995736766282E-16, 0.000000000000000000 ) ) ;
#206 = DIRECTION ( 'NONE',  ( -0.000000000000000000, -0.000000000000000000, -1.000000000000000000 ) ) ;
#207 = VERTEX_POINT ( 'NONE', #23 ) ;
#208 = AXIS2_PLACEMENT_3D ( 'NONE', #212, #214, #18 ) ;
#209 = PRODUCT_DEFINITION_SHAPE ( 'NONE', 'NONE',  #114 ) ;
#210 = EDGE_CURVE ( 'NONE', #157, #55, #58, .T. ) ;
#211 = CC_DESIGN_APPROVAL ( #178, ( #114 ) ) ;
#212 = CARTESIAN_POINT ( 'NONE',  ( 0.000000000000000000, 0.000000000000000000, 3.000000000000000000 ) ) ;
#213 = EDGE_CURVE ( 'NONE', #126, #207, #240, .T. ) ;
#214 = DIRECTION ( 'NONE',  ( 0.000000000000000000, 0.000000000000000000, 1.000000000000000000 ) ) ;
#215 = EDGE_LOOP ( 'NONE', ( #77, #252 ) ) ;
#216 = CIRCLE ( 'NONE', #122, 2.750000000000000000 ) ;
#217 = CIRCLE ( 'NONE', #112, 2.750000000000000000 ) ;
#218 = EDGE_LOOP ( 'NONE', ( #197, #16 ) ) ;
#219 = PLANE ( 'NONE',  #138 ) ;
#220 = ADVANCED_FACE ( 'NONE', ( #41 ), #104, .F. ) ;
#221 = DIRECTION ( 'NONE',  ( -0.000000000000000000, -0.000000000000000000, -1.000000000000000000 ) ) ;
#222 = DIRECTION ( 'NONE',  ( -0.000000000000000000, -0.000000000000000000, -1.000000000000000000 ) ) ;
#223 = DIRECTION ( 'NONE',  ( -1.000000000000000000, 0.000000000000000000, 0.000000000000000000 ) ) ;
#224 = CARTESIAN_POINT ( 'NONE',  ( 2.750000000000000000, 3.367778697655221012E-16, 253.0000000000000000 ) ) ;
#225 = APPROVAL_STATUS ( 'not_yet_approved' ) ;
#226 = DIRECTION ( 'NONE',  ( 0.000000000000000000, 0.000000000000000000, 1.000000000000000000 ) ) ;
#227 = EDGE_LOOP ( 'NONE', ( #251, #17, #136, #14 ) ) ;
#228 = AXIS2_PLACEMENT_3D ( 'NONE', #54, #142, #160 ) ;
#229 = ORIENTED_EDGE ( 'NONE', *, *, #116, .T. ) ;
#230 = LOCAL_TIME ( 19, 42, 24.00000000000000000, #194 ) ;
#231 = APPLICATION_CONTEXT ( 'configuration controlled 3d designs of mechanical parts and assemblies' ) ;
#232 = VERTEX_POINT ( 'NONE', #205 ) ;
#233 = FACE_OUTER_BOUND ( 'NONE', #93, .T. ) ;
#234 = CC_DESIGN_DATE_AND_TIME_ASSIGNMENT ( #250, #246, ( #25 ) ) ;
#235 = EDGE_LOOP ( 'NONE', ( #33, #71 ) ) ;
#236 = DIRECTION ( 'NONE',  ( 1.000000000000000000, 0.000000000000000000, 0.000000000000000000 ) ) ;
#237 = CC_DESIGN_DATE_AND_TIME_ASSIGNMENT ( #45, #88, ( #114 ) ) ;
#238 = CYLINDRICAL_SURFACE ( 'NONE', #247, 5.000000000000000000 ) ;
#239 = COORDINATED_UNIVERSAL_TIME_OFFSET ( 1, 0, .AHEAD. ) ;
#240 = LINE ( 'NONE', #59, #63 ) ;
#241 = PERSON_AND_ORGANIZATION ( #254, #4 ) ;
#242 = APPLICATION_PROTOCOL_DEFINITION ( 'international standard', 'config_control_design', 1994, #231 ) ;
#243 = APPLICATION_PROTOCOL_DEFINITION ( 'international standard', 'config_control_design', 1994, #162 ) ;
#244 = PRODUCT_RELATED_PRODUCT_CATEGORY ( 'detail', '', ( #83 ) ) ;
#245 = EDGE_CURVE ( 'NONE', #91, #55, #217, .T. ) ;
#246 = DATE_TIME_ROLE ( 'classification_date' ) ;
#247 = AXIS2_PLACEMENT_3D ( 'NONE', #42, #221, #43 ) ;
#248 = PERSON_AND_ORGANIZATION ( #254, #4 ) ;
#249 = ORIENTED_EDGE ( 'NONE', *, *, #174, .T. ) ;
#250 = DATE_AND_TIME ( #92, #230 ) ;
#251 = ORIENTED_EDGE ( 'NONE', *, *, #66, .F. ) ;
#252 = ORIENTED_EDGE ( 'NONE', *, *, #66, .T. ) ;
#253 = CC_DESIGN_PERSON_AND_ORGANIZATION_ASSIGNMENT ( #119, #139, ( #195 ) ) ;
#254 = PERSON ( 'NEURÈENÝ', 'NEURÈENÝ', 'NEURÈENÝ', ('NEURÈENÝ'), ('NEURÈENÝ'), ('NEURÈENÝ') ) ;
#255 = EDGE_LOOP ( 'NONE', ( #73, #98 ) ) ;
ENDSEC;
END-ISO-10303-21;
