ISO-10303-21;
HEADER;
FILE_DESCRIPTION (( 'STEP AP203' ),
    '1' );
FILE_NAME ('5985.STEP',
    '2023-02-13T08:44:06',
    ( '' ),
    ( '' ),
    'SwSTEP 2.0',
    'SolidWorks 2019',
    '' );
FILE_SCHEMA (( 'CONFIG_CONTROL_DESIGN' ));
ENDSEC;

DATA;
#1 = ORIENTED_EDGE ( 'NONE', *, *, #242, .F. ) ;
#2 = PERSON_AND_ORGANIZATION_ROLE ( 'design_supplier' ) ;
#3 = VERTEX_POINT ( 'NONE', #147 ) ;
#4 = EDGE_LOOP ( 'NONE', ( #200, #17, #143, #120 ) ) ;
#5 = CARTESIAN_POINT ( 'NONE',  ( 10.00000000000000178, 1.224646799147353454E-15, 250.0000000000000000 ) ) ;
#6 = VERTEX_POINT ( 'NONE', #219 ) ;
#7 = EDGE_CURVE ( 'NONE', #6, #233, #21, .T. ) ;
#8 = CARTESIAN_POINT ( 'NONE',  ( 0.000000000000000000, 0.000000000000000000, 250.0000000000000000 ) ) ;
#9 = ORIENTED_EDGE ( 'NONE', *, *, #71, .F. ) ;
#10 = CARTESIAN_POINT ( 'NONE',  ( 10.00000000000000178, 1.224646799147353454E-15, 8.000000000000000000 ) ) ;
#11 = LINE ( 'NONE', #44, #155 ) ;
#12 = ADVANCED_FACE ( 'NONE', ( #16 ), #58, .T. ) ;
#13 = FACE_OUTER_BOUND ( 'NONE', #198, .T. ) ;
#14 = MECHANICAL_CONTEXT ( 'NONE', #90, 'mechanical' ) ;
#15 = DATE_AND_TIME ( #136, #178 ) ;
#16 = FACE_OUTER_BOUND ( 'NONE', #230, .T. ) ;
#17 = ORIENTED_EDGE ( 'NONE', *, *, #247, .T. ) ;
#18 = CARTESIAN_POINT ( 'NONE',  ( 0.000000000000000000, 0.000000000000000000, 8.000000000000000000 ) ) ;
#19 = CC_DESIGN_PERSON_AND_ORGANIZATION_ASSIGNMENT ( #78, #168, ( #56 ) ) ;
#20 = PERSON_AND_ORGANIZATION ( #138, #135 ) ;
#21 = CIRCLE ( 'NONE', #61, 13.00000000000000178 ) ;
#22 = CC_DESIGN_APPROVAL ( #34, ( #190 ) ) ;
#23 = DATE_AND_TIME ( #196, #113 ) ;
#24 = ORIENTED_EDGE ( 'NONE', *, *, #71, .T. ) ;
#25 = SHAPE_DEFINITION_REPRESENTATION ( #52, #92 ) ;
#26 = ORIENTED_EDGE ( 'NONE', *, *, #166, .F. ) ;
#27 = CARTESIAN_POINT ( 'NONE',  ( -13.00000000000000178, 0.000000000000000000, 0.000000000000000000 ) ) ;
#28 = VERTEX_POINT ( 'NONE', #180 ) ;
#29 = AXIS2_PLACEMENT_3D ( 'NONE', #207, #235, #127 ) ;
#30 = DIRECTION ( 'NONE',  ( 1.000000000000000000, 0.000000000000000000, 0.000000000000000000 ) ) ;
#31 = EDGE_LOOP ( 'NONE', ( #181, #74, #106, #80 ) ) ;
#32 = CARTESIAN_POINT ( 'NONE',  ( 0.000000000000000000, 0.000000000000000000, 8.000000000000000000 ) ) ;
#33 = DIRECTION ( 'NONE',  ( 1.000000000000000000, 0.000000000000000000, -0.000000000000000000 ) ) ;
#34 = APPROVAL ( #191, 'NEURÈENÝ' ) ;
#35 = CC_DESIGN_APPROVAL ( #118, ( #56 ) ) ;
#36 = DIRECTION ( 'NONE',  ( -0.000000000000000000, -0.000000000000000000, -1.000000000000000000 ) ) ;
#37 = DATE_TIME_ROLE ( 'creation_date' ) ;
#38 = DIRECTION ( 'NONE',  ( 1.000000000000000000, 0.000000000000000000, 0.000000000000000000 ) ) ;
#39 = DIRECTION ( 'NONE',  ( 0.000000000000000000, 0.000000000000000000, 1.000000000000000000 ) ) ;
#40 = EDGE_CURVE ( 'NONE', #221, #119, #253, .T. ) ;
#41 = CARTESIAN_POINT ( 'NONE',  ( 0.000000000000000000, 0.000000000000000000, 250.0000000000000000 ) ) ;
#42 =( GEOMETRIC_REPRESENTATION_CONTEXT ( 3 ) GLOBAL_UNCERTAINTY_ASSIGNED_CONTEXT ( ( #150 ) ) GLOBAL_UNIT_ASSIGNED_CONTEXT ( ( #246, #72, #176 ) ) REPRESENTATION_CONTEXT ( 'NONE', 'WORKASPACE' ) );
#43 = PLANE ( 'NONE',  #99 ) ;
#44 = CARTESIAN_POINT ( 'NONE',  ( -13.00000000000000178, 0.000000000000000000, 8.000000000000000000 ) ) ;
#45 = DESIGN_CONTEXT ( 'detailed design', #204, 'design' ) ;
#46 = DIRECTION ( 'NONE',  ( 1.000000000000000000, 0.000000000000000000, -0.000000000000000000 ) ) ;
#47 = PRODUCT_RELATED_PRODUCT_CATEGORY ( 'detail', '', ( #211 ) ) ;
#48 = DIRECTION ( 'NONE',  ( 1.000000000000000000, 0.000000000000000000, 0.000000000000000000 ) ) ;
#49 = AXIS2_PLACEMENT_3D ( 'NONE', #83, #128, #199 ) ;
#50 = APPLICATION_PROTOCOL_DEFINITION ( 'international standard', 'config_control_design', 1994, #90 ) ;
#51 = DIRECTION ( 'NONE',  ( -0.000000000000000000, -0.000000000000000000, -1.000000000000000000 ) ) ;
#52 = PRODUCT_DEFINITION_SHAPE ( 'NONE', 'NONE',  #190 ) ;
#53 = APPLICATION_PROTOCOL_DEFINITION ( 'international standard', 'config_control_design', 1994, #204 ) ;
#54 = CC_DESIGN_APPROVAL ( #111, ( #252 ) ) ;
#55 = PERSON_AND_ORGANIZATION_ROLE ( 'design_owner' ) ;
#56 = SECURITY_CLASSIFICATION ( '', '', #255 ) ;
#57 = ADVANCED_FACE ( 'NONE', ( #223, #145 ), #43, .T. ) ;
#58 = PLANE ( 'NONE',  #209 ) ;
#59 = ORIENTED_EDGE ( 'NONE', *, *, #186, .F. ) ;
#60 = CC_DESIGN_PERSON_AND_ORGANIZATION_ASSIGNMENT ( #250, #98, ( #252 ) ) ;
#61 = AXIS2_PLACEMENT_3D ( 'NONE', #66, #85, #170 ) ;
#62 = DIRECTION ( 'NONE',  ( -1.000000000000000000, 0.000000000000000000, 0.000000000000000000 ) ) ;
#63 = MANIFOLD_SOLID_BREP ( 'Pøidat vysunutím3', #192 ) ;
#64 = ORIENTED_EDGE ( 'NONE', *, *, #129, .F. ) ;
#65 = CARTESIAN_POINT ( 'NONE',  ( 0.000000000000000000, 0.000000000000000000, 250.0000000000000000 ) ) ;
#66 = CARTESIAN_POINT ( 'NONE',  ( 0.000000000000000000, 0.000000000000000000, 8.000000000000000000 ) ) ;
#67 = AXIS2_PLACEMENT_3D ( 'NONE', #169, #36, #62 ) ;
#68 = CARTESIAN_POINT ( 'NONE',  ( 0.000000000000000000, 0.000000000000000000, 8.000000000000000000 ) ) ;
#69 = CARTESIAN_POINT ( 'NONE',  ( -10.00000000000000178, 0.000000000000000000, 250.0000000000000000 ) ) ;
#70 = COORDINATED_UNIVERSAL_TIME_OFFSET ( 1, 0, .AHEAD. ) ;
#71 = EDGE_CURVE ( 'NONE', #3, #28, #244, .T. ) ;
#72 =( NAMED_UNIT ( * ) PLANE_ANGLE_UNIT ( ) SI_UNIT ( $, .RADIAN. ) );
#73 = EDGE_CURVE ( 'NONE', #3, #203, #208, .T. ) ;
#74 = ORIENTED_EDGE ( 'NONE', *, *, #109, .F. ) ;
#75 = ORIENTED_EDGE ( 'NONE', *, *, #93, .F. ) ;
#76 = DATE_TIME_ROLE ( 'classification_date' ) ;
#77 = CC_DESIGN_SECURITY_CLASSIFICATION ( #56, ( #252 ) ) ;
#78 = PERSON_AND_ORGANIZATION ( #138, #135 ) ;
#79 = ORIENTED_EDGE ( 'NONE', *, *, #73, .T. ) ;
#80 = ORIENTED_EDGE ( 'NONE', *, *, #242, .T. ) ;
#81 = AXIS2_PLACEMENT_3D ( 'NONE', #65, #146, #91 ) ;
#82 = ORIENTED_EDGE ( 'NONE', *, *, #247, .F. ) ;
#83 = CARTESIAN_POINT ( 'NONE',  ( 0.000000000000000000, 0.000000000000000000, 8.000000000000000000 ) ) ;
#84 = CYLINDRICAL_SURFACE ( 'NONE', #67, 13.00000000000000178 ) ;
#85 = DIRECTION ( 'NONE',  ( 0.000000000000000000, 0.000000000000000000, 1.000000000000000000 ) ) ;
#86 = DIRECTION ( 'NONE',  ( 1.000000000000000000, 0.000000000000000000, 0.000000000000000000 ) ) ;
#87 = AXIS2_PLACEMENT_3D ( 'NONE', #248, #189, #160 ) ;
#88 = CARTESIAN_POINT ( 'NONE',  ( 0.000000000000000000, 0.000000000000000000, 0.000000000000000000 ) ) ;
#89 = CC_DESIGN_DATE_AND_TIME_ASSIGNMENT ( #162, #76, ( #56 ) ) ;
#90 = APPLICATION_CONTEXT ( 'configuration controlled 3d designs of mechanical parts and assemblies' ) ;
#91 = DIRECTION ( 'NONE',  ( 1.000000000000000000, 0.000000000000000000, 0.000000000000000000 ) ) ;
#92 = ADVANCED_BREP_SHAPE_REPRESENTATION ( '5985', ( #63, #87 ), #42 ) ;
#93 = EDGE_CURVE ( 'NONE', #203, #167, #185, .T. ) ;
#94 = DIRECTION ( 'NONE',  ( -0.000000000000000000, -0.000000000000000000, -1.000000000000000000 ) ) ;
#95 = LOCAL_TIME ( 9, 44, 6.000000000000000000, #70 ) ;
#96 = APPROVAL_ROLE ( '' ) ;
#97 = CC_DESIGN_PERSON_AND_ORGANIZATION_ASSIGNMENT ( #161, #2, ( #252 ) ) ;
#98 = PERSON_AND_ORGANIZATION_ROLE ( 'creator' ) ;
#99 = AXIS2_PLACEMENT_3D ( 'NONE', #32, #222, #46 ) ;
#100 = COORDINATED_UNIVERSAL_TIME_OFFSET ( 1, 0, .AHEAD. ) ;
#101 = DATE_AND_TIME ( #141, #201 ) ;
#102 = EDGE_LOOP ( 'NONE', ( #59, #108 ) ) ;
#103 = APPROVAL_DATE_TIME ( #101, #118 ) ;
#104 = ORIENTED_EDGE ( 'NONE', *, *, #186, .T. ) ;
#105 = DIRECTION ( 'NONE',  ( 0.000000000000000000, 0.000000000000000000, 1.000000000000000000 ) ) ;
#106 = ORIENTED_EDGE ( 'NONE', *, *, #166, .T. ) ;
#107 = DIRECTION ( 'NONE',  ( 0.000000000000000000, 0.000000000000000000, 1.000000000000000000 ) ) ;
#108 = ORIENTED_EDGE ( 'NONE', *, *, #40, .F. ) ;
#109 = EDGE_CURVE ( 'NONE', #28, #3, #195, .T. ) ;
#110 = FACE_OUTER_BOUND ( 'NONE', #179, .T. ) ;
#111 = APPROVAL ( #225, 'NEURÈENÝ' ) ;
#112 = CIRCLE ( 'NONE', #215, 13.00000000000000178 ) ;
#113 = LOCAL_TIME ( 9, 44, 6.000000000000000000, #174 ) ;
#114 = CARTESIAN_POINT ( 'NONE',  ( 13.00000000000000178, 1.592040838891559293E-15, 8.000000000000000000 ) ) ;
#115 = CYLINDRICAL_SURFACE ( 'NONE', #164, 10.00000000000000178 ) ;
#116 = EDGE_CURVE ( 'NONE', #233, #119, #11, .T. ) ;
#117 = PLANE ( 'NONE',  #130 ) ;
#118 = APPROVAL ( #229, 'NEURÈENÝ' ) ;
#119 = VERTEX_POINT ( 'NONE', #27 ) ;
#120 = ORIENTED_EDGE ( 'NONE', *, *, #116, .F. ) ;
#121 = ADVANCED_FACE ( 'NONE', ( #182 ), #202, .T. ) ;
#122 = AXIS2_PLACEMENT_3D ( 'NONE', #88, #218, #30 ) ;
#123 = ORIENTED_EDGE ( 'NONE', *, *, #129, .T. ) ;
#124 = CARTESIAN_POINT ( 'NONE',  ( 0.000000000000000000, 0.000000000000000000, 250.0000000000000000 ) ) ;
#125 = DIRECTION ( 'NONE',  ( 0.000000000000000000, 0.000000000000000000, 1.000000000000000000 ) ) ;
#126 = APPROVAL_PERSON_ORGANIZATION ( #156, #111, #96 ) ;
#127 = DIRECTION ( 'NONE',  ( -1.000000000000000000, 0.000000000000000000, 0.000000000000000000 ) ) ;
#128 = DIRECTION ( 'NONE',  ( 0.000000000000000000, 0.000000000000000000, 1.000000000000000000 ) ) ;
#129 = EDGE_CURVE ( 'NONE', #233, #6, #139, .T. ) ;
#130 = AXIS2_PLACEMENT_3D ( 'NONE', #228, #194, #175 ) ;
#131 = COORDINATED_UNIVERSAL_TIME_OFFSET ( 1, 0, .AHEAD. ) ;
#132 = PERSON_AND_ORGANIZATION ( #138, #135 ) ;
#133 = PERSON_AND_ORGANIZATION ( #138, #135 ) ;
#134 = ADVANCED_FACE ( 'NONE', ( #13 ), #172, .T. ) ;
#135 = ORGANIZATION ( 'NEURÈENÝ', 'NEURÈENÝ', '' ) ;
#136 = CALENDAR_DATE ( 2023, 13, 2 ) ;
#137 = APPROVAL_ROLE ( '' ) ;
#138 = PERSON ( 'NEURÈENÝ', 'NEURÈENÝ', 'NEURÈENÝ', ('NEURÈENÝ'), ('NEURÈENÝ'), ('NEURÈENÝ') ) ;
#139 = CIRCLE ( 'NONE', #173, 13.00000000000000178 ) ;
#140 = ORIENTED_EDGE ( 'NONE', *, *, #109, .T. ) ;
#141 = CALENDAR_DATE ( 2023, 13, 2 ) ;
#142 = APPROVAL_ROLE ( '' ) ;
#143 = ORIENTED_EDGE ( 'NONE', *, *, #40, .T. ) ;
#144 = APPROVAL_PERSON_ORGANIZATION ( #133, #34, #137 ) ;
#145 = FACE_OUTER_BOUND ( 'NONE', #237, .T. ) ;
#146 = DIRECTION ( 'NONE',  ( 0.000000000000000000, 0.000000000000000000, 1.000000000000000000 ) ) ;
#147 = CARTESIAN_POINT ( 'NONE',  ( 10.00000000000000178, 1.224646799147353454E-15, 250.0000000000000000 ) ) ;
#148 = DIRECTION ( 'NONE',  ( 0.000000000000000000, 0.000000000000000000, 1.000000000000000000 ) ) ;
#149 = APPROVAL_PERSON_ORGANIZATION ( #163, #118, #142 ) ;
#150 = UNCERTAINTY_MEASURE_WITH_UNIT (LENGTH_MEASURE( 1.000000000000000082E-05 ), #246, 'distance_accuracy_value', 'NONE');
#151 = CARTESIAN_POINT ( 'NONE',  ( 0.000000000000000000, 0.000000000000000000, 0.000000000000000000 ) ) ;
#152 = CC_DESIGN_PERSON_AND_ORGANIZATION_ASSIGNMENT ( #20, #154, ( #190 ) ) ;
#153 = DIRECTION ( 'NONE',  ( -0.000000000000000000, -0.000000000000000000, -1.000000000000000000 ) ) ;
#154 = PERSON_AND_ORGANIZATION_ROLE ( 'creator' ) ;
#155 = VECTOR ( 'NONE', #238, 1000.000000000000000 ) ;
#156 = PERSON_AND_ORGANIZATION ( #138, #135 ) ;
#157 = DIRECTION ( 'NONE',  ( -1.000000000000000000, 0.000000000000000000, 0.000000000000000000 ) ) ;
#158 = CC_DESIGN_DATE_AND_TIME_ASSIGNMENT ( #210, #37, ( #190 ) ) ;
#159 = LOCAL_TIME ( 9, 44, 6.000000000000000000, #100 ) ;
#160 = DIRECTION ( 'NONE',  ( 1.000000000000000000, 0.000000000000000000, 0.000000000000000000 ) ) ;
#161 = PERSON_AND_ORGANIZATION ( #138, #135 ) ;
#162 = DATE_AND_TIME ( #177, #159 ) ;
#163 = PERSON_AND_ORGANIZATION ( #138, #135 ) ;
#164 = AXIS2_PLACEMENT_3D ( 'NONE', #243, #51, #157 ) ;
#165 = VECTOR ( 'NONE', #171, 1000.000000000000000 ) ;
#166 = EDGE_CURVE ( 'NONE', #28, #167, #205, .T. ) ;
#167 = VERTEX_POINT ( 'NONE', #184 ) ;
#168 = PERSON_AND_ORGANIZATION_ROLE ( 'classification_officer' ) ;
#169 = CARTESIAN_POINT ( 'NONE',  ( 0.000000000000000000, 0.000000000000000000, 8.000000000000000000 ) ) ;
#170 = DIRECTION ( 'NONE',  ( 1.000000000000000000, 0.000000000000000000, 0.000000000000000000 ) ) ;
#171 = DIRECTION ( 'NONE',  ( -0.000000000000000000, -0.000000000000000000, -1.000000000000000000 ) ) ;
#172 = CYLINDRICAL_SURFACE ( 'NONE', #251, 10.00000000000000178 ) ;
#173 = AXIS2_PLACEMENT_3D ( 'NONE', #68, #148, #188 ) ;
#174 = COORDINATED_UNIVERSAL_TIME_OFFSET ( 1, 0, .AHEAD. ) ;
#175 = DIRECTION ( 'NONE',  ( 1.000000000000000000, 0.000000000000000000, -0.000000000000000000 ) ) ;
#176 =( NAMED_UNIT ( * ) SI_UNIT ( $, .STERADIAN. ) SOLID_ANGLE_UNIT ( ) );
#177 = CALENDAR_DATE ( 2023, 13, 2 ) ;
#178 = LOCAL_TIME ( 9, 44, 6.000000000000000000, #131 ) ;
#179 = EDGE_LOOP ( 'NONE', ( #82, #64, #254, #104 ) ) ;
#180 = CARTESIAN_POINT ( 'NONE',  ( -10.00000000000000178, 0.000000000000000000, 250.0000000000000000 ) ) ;
#181 = ORIENTED_EDGE ( 'NONE', *, *, #73, .F. ) ;
#182 = FACE_OUTER_BOUND ( 'NONE', #4, .T. ) ;
#183 = EDGE_LOOP ( 'NONE', ( #1, #75 ) ) ;
#184 = CARTESIAN_POINT ( 'NONE',  ( -10.00000000000000178, 0.000000000000000000, 8.000000000000000000 ) ) ;
#185 = CIRCLE ( 'NONE', #49, 10.00000000000000178 ) ;
#186 = EDGE_CURVE ( 'NONE', #119, #221, #112, .T. ) ;
#187 = CIRCLE ( 'NONE', #240, 10.00000000000000178 ) ;
#188 = DIRECTION ( 'NONE',  ( 1.000000000000000000, 0.000000000000000000, 0.000000000000000000 ) ) ;
#189 = DIRECTION ( 'NONE',  ( 0.000000000000000000, 0.000000000000000000, 1.000000000000000000 ) ) ;
#190 = PRODUCT_DEFINITION ( 'NEZNÁMÝ', '', #252, #45 ) ;
#191 = APPROVAL_STATUS ( 'not_yet_approved' ) ;
#192 = CLOSED_SHELL ( 'NONE', ( #134, #121, #197, #57, #206, #217, #12 ) ) ;
#193 = CARTESIAN_POINT ( 'NONE',  ( 13.00000000000000178, 1.592040838891559293E-15, 0.000000000000000000 ) ) ;
#194 = DIRECTION ( 'NONE',  ( 0.000000000000000000, 0.000000000000000000, 1.000000000000000000 ) ) ;
#195 = CIRCLE ( 'NONE', #81, 10.00000000000000178 ) ;
#196 = CALENDAR_DATE ( 2023, 13, 2 ) ;
#197 = ADVANCED_FACE ( 'NONE', ( #110 ), #84, .T. ) ;
#198 = EDGE_LOOP ( 'NONE', ( #9, #79, #231, #26 ) ) ;
#199 = DIRECTION ( 'NONE',  ( 1.000000000000000000, 0.000000000000000000, 0.000000000000000000 ) ) ;
#200 = ORIENTED_EDGE ( 'NONE', *, *, #7, .F. ) ;
#201 = LOCAL_TIME ( 9, 44, 6.000000000000000000, #232 ) ;
#202 = CYLINDRICAL_SURFACE ( 'NONE', #29, 13.00000000000000178 ) ;
#203 = VERTEX_POINT ( 'NONE', #10 ) ;
#204 = APPLICATION_CONTEXT ( 'configuration controlled 3d designs of mechanical parts and assemblies' ) ;
#205 = LINE ( 'NONE', #69, #239 ) ;
#206 = ADVANCED_FACE ( 'NONE', ( #213 ), #117, .F. ) ;
#207 = CARTESIAN_POINT ( 'NONE',  ( 0.000000000000000000, 0.000000000000000000, 8.000000000000000000 ) ) ;
#208 = LINE ( 'NONE', #5, #165 ) ;
#209 = AXIS2_PLACEMENT_3D ( 'NONE', #41, #125, #33 ) ;
#210 = DATE_AND_TIME ( #224, #95 ) ;
#211 = PRODUCT ( '5985', '5985', '', ( #14 ) ) ;
#212 = CARTESIAN_POINT ( 'NONE',  ( -13.00000000000000178, 0.000000000000000000, 8.000000000000000000 ) ) ;
#213 = FACE_OUTER_BOUND ( 'NONE', #102, .T. ) ;
#214 = APPROVAL_DATE_TIME ( #15, #34 ) ;
#215 = AXIS2_PLACEMENT_3D ( 'NONE', #151, #105, #48 ) ;
#216 = VECTOR ( 'NONE', #94, 1000.000000000000000 ) ;
#217 = ADVANCED_FACE ( 'NONE', ( #245 ), #115, .T. ) ;
#218 = DIRECTION ( 'NONE',  ( 0.000000000000000000, 0.000000000000000000, 1.000000000000000000 ) ) ;
#219 = CARTESIAN_POINT ( 'NONE',  ( 13.00000000000000178, 1.592040838891559293E-15, 8.000000000000000000 ) ) ;
#220 = DIRECTION ( 'NONE',  ( -1.000000000000000000, 0.000000000000000000, 0.000000000000000000 ) ) ;
#221 = VERTEX_POINT ( 'NONE', #193 ) ;
#222 = DIRECTION ( 'NONE',  ( 0.000000000000000000, 0.000000000000000000, 1.000000000000000000 ) ) ;
#223 = FACE_BOUND ( 'NONE', #183, .T. ) ;
#224 = CALENDAR_DATE ( 2023, 13, 2 ) ;
#225 = APPROVAL_STATUS ( 'not_yet_approved' ) ;
#226 = LINE ( 'NONE', #114, #216 ) ;
#227 = CC_DESIGN_PERSON_AND_ORGANIZATION_ASSIGNMENT ( #132, #55, ( #211 ) ) ;
#228 = CARTESIAN_POINT ( 'NONE',  ( 0.000000000000000000, 0.000000000000000000, 0.000000000000000000 ) ) ;
#229 = APPROVAL_STATUS ( 'not_yet_approved' ) ;
#230 = EDGE_LOOP ( 'NONE', ( #140, #24 ) ) ;
#231 = ORIENTED_EDGE ( 'NONE', *, *, #93, .T. ) ;
#232 = COORDINATED_UNIVERSAL_TIME_OFFSET ( 1, 0, .AHEAD. ) ;
#233 = VERTEX_POINT ( 'NONE', #212 ) ;
#234 = AXIS2_PLACEMENT_3D ( 'NONE', #124, #107, #86 ) ;
#235 = DIRECTION ( 'NONE',  ( -0.000000000000000000, -0.000000000000000000, -1.000000000000000000 ) ) ;
#236 = ORIENTED_EDGE ( 'NONE', *, *, #7, .T. ) ;
#237 = EDGE_LOOP ( 'NONE', ( #123, #236 ) ) ;
#238 = DIRECTION ( 'NONE',  ( -0.000000000000000000, -0.000000000000000000, -1.000000000000000000 ) ) ;
#239 = VECTOR ( 'NONE', #153, 1000.000000000000000 ) ;
#240 = AXIS2_PLACEMENT_3D ( 'NONE', #18, #39, #38 ) ;
#241 = DIRECTION ( 'NONE',  ( -0.000000000000000000, -0.000000000000000000, -1.000000000000000000 ) ) ;
#242 = EDGE_CURVE ( 'NONE', #167, #203, #187, .T. ) ;
#243 = CARTESIAN_POINT ( 'NONE',  ( 0.000000000000000000, 0.000000000000000000, 250.0000000000000000 ) ) ;
#244 = CIRCLE ( 'NONE', #234, 10.00000000000000178 ) ;
#245 = FACE_OUTER_BOUND ( 'NONE', #31, .T. ) ;
#246 =( LENGTH_UNIT ( ) NAMED_UNIT ( * ) SI_UNIT ( .MILLI., .METRE. ) );
#247 = EDGE_CURVE ( 'NONE', #6, #221, #226, .T. ) ;
#248 = CARTESIAN_POINT ( 'NONE',  ( 0.000000000000000000, 0.000000000000000000, 0.000000000000000000 ) ) ;
#249 = APPROVAL_DATE_TIME ( #23, #111 ) ;
#250 = PERSON_AND_ORGANIZATION ( #138, #135 ) ;
#251 = AXIS2_PLACEMENT_3D ( 'NONE', #8, #241, #220 ) ;
#252 = PRODUCT_DEFINITION_FORMATION_WITH_SPECIFIED_SOURCE ( 'LIBOVOLNÝ', '', #211, .NOT_KNOWN. ) ;
#253 = CIRCLE ( 'NONE', #122, 13.00000000000000178 ) ;
#254 = ORIENTED_EDGE ( 'NONE', *, *, #116, .T. ) ;
#255 = SECURITY_CLASSIFICATION_LEVEL ( 'unclassified' ) ;
ENDSEC;
END-ISO-10303-21;
