ISO-10303-21;
HEADER;
FILE_DESCRIPTION (( 'STEP AP203' ),
    '1' );
FILE_NAME ('8f95.STEP',
    '2022-07-07T17:06:42',
    ( '' ),
    ( '' ),
    'SwSTEP 2.0',
    'SolidWorks 2019',
    '' );
FILE_SCHEMA (( 'CONFIG_CONTROL_DESIGN' ));
ENDSEC;

DATA;
#1 = APPROVAL_PERSON_ORGANIZATION ( #133, #213, #155 ) ;
#2 = DATE_AND_TIME ( #59, #123 ) ;
#3 = DIRECTION ( 'NONE',  ( 0.000000000000000000, 0.000000000000000000, 1.000000000000000000 ) ) ;
#4 = COORDINATED_UNIVERSAL_TIME_OFFSET ( 1, 0, .AHEAD. ) ;
#5 = DIRECTION ( 'NONE',  ( -1.000000000000000000, 0.000000000000000000, 0.000000000000000000 ) ) ;
#6 = DATE_AND_TIME ( #196, #11 ) ;
#7 = PLANE ( 'NONE',  #63 ) ;
#8 = DIRECTION ( 'NONE',  ( 1.000000000000000000, 0.000000000000000000, 0.000000000000000000 ) ) ;
#9 = EDGE_CURVE ( 'NONE', #111, #251, #232, .T. ) ;
#10 = EDGE_CURVE ( 'NONE', #251, #73, #180, .T. ) ;
#11 = LOCAL_TIME ( 19, 6, 42.00000000000000000, #113 ) ;
#12 = CARTESIAN_POINT ( 'NONE',  ( -8.500000000000000000, 0.000000000000000000, 7.000000000000000000 ) ) ;
#13 = VERTEX_POINT ( 'NONE', #21 ) ;
#14 = CARTESIAN_POINT ( 'NONE',  ( 0.000000000000000000, 0.000000000000000000, 7.000000000000000000 ) ) ;
#15 = EDGE_LOOP ( 'NONE', ( #69, #148 ) ) ;
#16 = ORIENTED_EDGE ( 'NONE', *, *, #119, .T. ) ;
#17 = DIRECTION ( 'NONE',  ( -0.000000000000000000, -0.000000000000000000, -1.000000000000000000 ) ) ;
#18 = EDGE_LOOP ( 'NONE', ( #86, #36, #16, #124 ) ) ;
#19 = PRODUCT_DEFINITION_SHAPE ( 'NONE', 'NONE',  #184 ) ;
#20 =( NAMED_UNIT ( * ) SI_UNIT ( $, .STERADIAN. ) SOLID_ANGLE_UNIT ( ) );
#21 = CARTESIAN_POINT ( 'NONE',  ( -11.00000000000000000, 0.000000000000000000, 7.000000000000000000 ) ) ;
#22 = ADVANCED_FACE ( 'NONE', ( #60 ), #7, .T. ) ;
#23 = CC_DESIGN_APPROVAL ( #67, ( #217 ) ) ;
#24 = COORDINATED_UNIVERSAL_TIME_OFFSET ( 1, 0, .AHEAD. ) ;
#25 = CARTESIAN_POINT ( 'NONE',  ( 0.000000000000000000, 0.000000000000000000, 0.000000000000000000 ) ) ;
#26 = CC_DESIGN_PERSON_AND_ORGANIZATION_ASSIGNMENT ( #137, #222, ( #217 ) ) ;
#27 = APPROVAL_STATUS ( 'not_yet_approved' ) ;
#28 = ORIENTED_EDGE ( 'NONE', *, *, #94, .T. ) ;
#29 = EDGE_CURVE ( 'NONE', #219, #153, #166, .T. ) ;
#30 = DIRECTION ( 'NONE',  ( -0.000000000000000000, -0.000000000000000000, -1.000000000000000000 ) ) ;
#31 = AXIS2_PLACEMENT_3D ( 'NONE', #145, #211, #151 ) ;
#32 = EDGE_CURVE ( 'NONE', #153, #219, #249, .T. ) ;
#33 = VECTOR ( 'NONE', #128, 1000.000000000000000 ) ;
#34 = AXIS2_PLACEMENT_3D ( 'NONE', #168, #17, #188 ) ;
#35 = CARTESIAN_POINT ( 'NONE',  ( -8.500000000000000000, 0.000000000000000000, 107.0000000000000142 ) ) ;
#36 = ORIENTED_EDGE ( 'NONE', *, *, #118, .F. ) ;
#37 = ORIENTED_EDGE ( 'NONE', *, *, #104, .T. ) ;
#38 = CIRCLE ( 'NONE', #83, 8.500000000000000000 ) ;
#39 = CARTESIAN_POINT ( 'NONE',  ( 11.00000000000000000, 1.347111479062088405E-15, 7.000000000000000000 ) ) ;
#40 = FACE_BOUND ( 'NONE', #95, .T. ) ;
#41 = CARTESIAN_POINT ( 'NONE',  ( 0.000000000000000000, 0.000000000000000000, 7.000000000000000000 ) ) ;
#42 = APPROVAL_ROLE ( '' ) ;
#43 = DIRECTION ( 'NONE',  ( 0.000000000000000000, 0.000000000000000000, 1.000000000000000000 ) ) ;
#44 = CC_DESIGN_DATE_AND_TIME_ASSIGNMENT ( #177, #152, ( #184 ) ) ;
#45 = PERSON_AND_ORGANIZATION ( #160, #105 ) ;
#46 = CARTESIAN_POINT ( 'NONE',  ( 0.000000000000000000, 0.000000000000000000, 107.0000000000000142 ) ) ;
#47 = DATE_AND_TIME ( #80, #175 ) ;
#48 = ORIENTED_EDGE ( 'NONE', *, *, #10, .F. ) ;
#49 = ADVANCED_FACE ( 'NONE', ( #99 ), #96, .F. ) ;
#50 = DIRECTION ( 'NONE',  ( -0.000000000000000000, -0.000000000000000000, -1.000000000000000000 ) ) ;
#51 = LOCAL_TIME ( 19, 6, 42.00000000000000000, #4 ) ;
#52 = ORIENTED_EDGE ( 'NONE', *, *, #9, .F. ) ;
#53 = MECHANICAL_CONTEXT ( 'NONE', #127, 'mechanical' ) ;
#54 = ADVANCED_BREP_SHAPE_REPRESENTATION ( '8f95', ( #201, #144 ), #208 ) ;
#55 = CARTESIAN_POINT ( 'NONE',  ( -11.00000000000000000, 0.000000000000000000, 0.000000000000000000 ) ) ;
#56 = PRODUCT ( '8f95', '8f95', '', ( #53 ) ) ;
#57 = CIRCLE ( 'NONE', #183, 11.00000000000000000 ) ;
#58 = PERSON_AND_ORGANIZATION_ROLE ( 'design_owner' ) ;
#59 = CALENDAR_DATE ( 2022, 7, 7 ) ;
#60 = FACE_OUTER_BOUND ( 'NONE', #88, .T. ) ;
#61 = APPROVAL_STATUS ( 'not_yet_approved' ) ;
#62 = LINE ( 'NONE', #138, #193 ) ;
#63 = AXIS2_PLACEMENT_3D ( 'NONE', #81, #241, #64 ) ;
#64 = DIRECTION ( 'NONE',  ( 1.000000000000000000, 0.000000000000000000, -0.000000000000000000 ) ) ;
#65 = ADVANCED_FACE ( 'NONE', ( #226 ), #199, .T. ) ;
#66 = CC_DESIGN_APPROVAL ( #213, ( #184 ) ) ;
#67 = APPROVAL ( #61, 'NEURÈENÝ' ) ;
#68 = AXIS2_PLACEMENT_3D ( 'NONE', #112, #214, #74 ) ;
#69 = ORIENTED_EDGE ( 'NONE', *, *, #118, .T. ) ;
#70 = ORIENTED_EDGE ( 'NONE', *, *, #121, .T. ) ;
#71 = AXIS2_PLACEMENT_3D ( 'NONE', #205, #30, #5 ) ;
#72 = DIRECTION ( 'NONE',  ( -1.000000000000000000, 0.000000000000000000, 0.000000000000000000 ) ) ;
#73 = VERTEX_POINT ( 'NONE', #116 ) ;
#74 = DIRECTION ( 'NONE',  ( 1.000000000000000000, 0.000000000000000000, 0.000000000000000000 ) ) ;
#75 = AXIS2_PLACEMENT_3D ( 'NONE', #77, #135, #221 ) ;
#76 = DATE_AND_TIME ( #78, #51 ) ;
#77 = CARTESIAN_POINT ( 'NONE',  ( 0.000000000000000000, 0.000000000000000000, 0.000000000000000000 ) ) ;
#78 = CALENDAR_DATE ( 2022, 7, 7 ) ;
#79 = DIRECTION ( 'NONE',  ( 1.000000000000000000, 0.000000000000000000, 0.000000000000000000 ) ) ;
#80 = CALENDAR_DATE ( 2022, 7, 7 ) ;
#81 = CARTESIAN_POINT ( 'NONE',  ( 0.000000000000000000, 0.000000000000000000, 107.0000000000000142 ) ) ;
#82 = DIRECTION ( 'NONE',  ( 1.000000000000000000, 0.000000000000000000, 0.000000000000000000 ) ) ;
#83 = AXIS2_PLACEMENT_3D ( 'NONE', #46, #114, #82 ) ;
#84 = LINE ( 'NONE', #35, #224 ) ;
#85 = UNCERTAINTY_MEASURE_WITH_UNIT (LENGTH_MEASURE( 1.000000000000000082E-05 ), #252, 'distance_accuracy_value', 'NONE');
#86 = ORIENTED_EDGE ( 'NONE', *, *, #120, .F. ) ;
#87 = DIRECTION ( 'NONE',  ( -1.000000000000000000, 0.000000000000000000, 0.000000000000000000 ) ) ;
#88 = EDGE_LOOP ( 'NONE', ( #239, #37 ) ) ;
#89 = CC_DESIGN_PERSON_AND_ORGANIZATION_ASSIGNMENT ( #173, #220, ( #184 ) ) ;
#90 = PERSON_AND_ORGANIZATION ( #160, #105 ) ;
#91 = CLOSED_SHELL ( 'NONE', ( #65, #154, #164, #136, #49, #230, #22 ) ) ;
#92 = CARTESIAN_POINT ( 'NONE',  ( 8.500000000000000000, 1.040949779275250140E-15, 107.0000000000000142 ) ) ;
#93 = VERTEX_POINT ( 'NONE', #102 ) ;
#94 = EDGE_CURVE ( 'NONE', #146, #73, #186, .T. ) ;
#95 = EDGE_LOOP ( 'NONE', ( #170, #126 ) ) ;
#96 = PLANE ( 'NONE',  #131 ) ;
#97 = LOCAL_TIME ( 19, 6, 42.00000000000000000, #100 ) ;
#98 = SECURITY_CLASSIFICATION_LEVEL ( 'unclassified' ) ;
#99 = FACE_OUTER_BOUND ( 'NONE', #195, .T. ) ;
#100 = COORDINATED_UNIVERSAL_TIME_OFFSET ( 1, 0, .AHEAD. ) ;
#101 = CARTESIAN_POINT ( 'NONE',  ( 0.000000000000000000, 0.000000000000000000, 107.0000000000000142 ) ) ;
#102 = CARTESIAN_POINT ( 'NONE',  ( 11.00000000000000000, 1.347111479062088405E-15, 7.000000000000000000 ) ) ;
#103 = AXIS2_PLACEMENT_3D ( 'NONE', #107, #50, #72 ) ;
#104 = EDGE_CURVE ( 'NONE', #251, #111, #38, .T. ) ;
#105 = ORGANIZATION ( 'NEURÈENÝ', 'NEURÈENÝ', '' ) ;
#106 = DIRECTION ( 'NONE',  ( -0.000000000000000000, -0.000000000000000000, -1.000000000000000000 ) ) ;
#107 = CARTESIAN_POINT ( 'NONE',  ( 0.000000000000000000, 0.000000000000000000, 7.000000000000000000 ) ) ;
#108 = ORIENTED_EDGE ( 'NONE', *, *, #119, .F. ) ;
#109 = AXIS2_PLACEMENT_3D ( 'NONE', #14, #216, #218 ) ;
#110 = FACE_OUTER_BOUND ( 'NONE', #15, .T. ) ;
#111 = VERTEX_POINT ( 'NONE', #246 ) ;
#112 = CARTESIAN_POINT ( 'NONE',  ( 0.000000000000000000, 0.000000000000000000, 7.000000000000000000 ) ) ;
#113 = COORDINATED_UNIVERSAL_TIME_OFFSET ( 1, 0, .AHEAD. ) ;
#114 = DIRECTION ( 'NONE',  ( 0.000000000000000000, 0.000000000000000000, 1.000000000000000000 ) ) ;
#115 = PERSON_AND_ORGANIZATION_ROLE ( 'classification_officer' ) ;
#116 = CARTESIAN_POINT ( 'NONE',  ( 8.500000000000000000, 1.040949779275250140E-15, 7.000000000000000000 ) ) ;
#117 = ORIENTED_EDGE ( 'NONE', *, *, #10, .T. ) ;
#118 = EDGE_CURVE ( 'NONE', #13, #93, #57, .T. ) ;
#119 = EDGE_CURVE ( 'NONE', #13, #219, #62, .T. ) ;
#120 = EDGE_CURVE ( 'NONE', #93, #153, #181, .T. ) ;
#121 = EDGE_CURVE ( 'NONE', #73, #146, #248, .T. ) ;
#122 = PRODUCT_RELATED_PRODUCT_CATEGORY ( 'detail', '', ( #56 ) ) ;
#123 = LOCAL_TIME ( 19, 6, 42.00000000000000000, #24 ) ;
#124 = ORIENTED_EDGE ( 'NONE', *, *, #29, .T. ) ;
#125 = DIRECTION ( 'NONE',  ( 1.000000000000000000, 0.000000000000000000, 0.000000000000000000 ) ) ;
#126 = ORIENTED_EDGE ( 'NONE', *, *, #121, .F. ) ;
#127 = APPLICATION_CONTEXT ( 'configuration controlled 3d designs of mechanical parts and assemblies' ) ;
#128 = DIRECTION ( 'NONE',  ( -0.000000000000000000, -0.000000000000000000, -1.000000000000000000 ) ) ;
#129 = ORIENTED_EDGE ( 'NONE', *, *, #120, .T. ) ;
#130 = ORIENTED_EDGE ( 'NONE', *, *, #32, .F. ) ;
#131 = AXIS2_PLACEMENT_3D ( 'NONE', #182, #141, #178 ) ;
#132 = AXIS2_PLACEMENT_3D ( 'NONE', #25, #3, #197 ) ;
#133 = PERSON_AND_ORGANIZATION ( #160, #105 ) ;
#134 = COORDINATED_UNIVERSAL_TIME_OFFSET ( 1, 0, .AHEAD. ) ;
#135 = DIRECTION ( 'NONE',  ( 0.000000000000000000, 0.000000000000000000, 1.000000000000000000 ) ) ;
#136 = ADVANCED_FACE ( 'NONE', ( #40, #110 ), #169, .T. ) ;
#137 = PERSON_AND_ORGANIZATION ( #160, #105 ) ;
#138 = CARTESIAN_POINT ( 'NONE',  ( -11.00000000000000000, 0.000000000000000000, 7.000000000000000000 ) ) ;
#139 = EDGE_CURVE ( 'NONE', #93, #13, #206, .T. ) ;
#140 = CC_DESIGN_SECURITY_CLASSIFICATION ( #163, ( #217 ) ) ;
#141 = DIRECTION ( 'NONE',  ( 0.000000000000000000, 0.000000000000000000, 1.000000000000000000 ) ) ;
#142 = PERSON_AND_ORGANIZATION ( #160, #105 ) ;
#143 = AXIS2_PLACEMENT_3D ( 'NONE', #101, #158, #203 ) ;
#144 = AXIS2_PLACEMENT_3D ( 'NONE', #233, #237, #125 ) ;
#145 = CARTESIAN_POINT ( 'NONE',  ( 0.000000000000000000, 0.000000000000000000, 7.000000000000000000 ) ) ;
#146 = VERTEX_POINT ( 'NONE', #12 ) ;
#147 = CC_DESIGN_APPROVAL ( #207, ( #163 ) ) ;
#148 = ORIENTED_EDGE ( 'NONE', *, *, #139, .T. ) ;
#149 = FACE_OUTER_BOUND ( 'NONE', #210, .T. ) ;
#150 = EDGE_LOOP ( 'NONE', ( #187, #129, #253, #108 ) ) ;
#151 = DIRECTION ( 'NONE',  ( 1.000000000000000000, 0.000000000000000000, -0.000000000000000000 ) ) ;
#152 = DATE_TIME_ROLE ( 'creation_date' ) ;
#153 = VERTEX_POINT ( 'NONE', #194 ) ;
#154 = ADVANCED_FACE ( 'NONE', ( #192 ), #236, .T. ) ;
#155 = APPROVAL_ROLE ( '' ) ;
#156 = CARTESIAN_POINT ( 'NONE',  ( 8.500000000000000000, 1.040949779275250140E-15, 107.0000000000000142 ) ) ;
#157 = APPROVAL_DATE_TIME ( #6, #207 ) ;
#158 = DIRECTION ( 'NONE',  ( 0.000000000000000000, 0.000000000000000000, 1.000000000000000000 ) ) ;
#159 = APPLICATION_CONTEXT ( 'configuration controlled 3d designs of mechanical parts and assemblies' ) ;
#160 = PERSON ( 'NEURÈENÝ', 'NEURÈENÝ', 'NEURÈENÝ', ('NEURÈENÝ'), ('NEURÈENÝ'), ('NEURÈENÝ') ) ;
#161 = DATE_TIME_ROLE ( 'classification_date' ) ;
#162 = CARTESIAN_POINT ( 'NONE',  ( 0.000000000000000000, 0.000000000000000000, 7.000000000000000000 ) ) ;
#163 = SECURITY_CLASSIFICATION ( '', '', #98 ) ;
#164 = ADVANCED_FACE ( 'NONE', ( #234 ), #250, .T. ) ;
#165 = DESIGN_CONTEXT ( 'detailed design', #159, 'design' ) ;
#166 = CIRCLE ( 'NONE', #75, 11.00000000000000000 ) ;
#167 =( NAMED_UNIT ( * ) PLANE_ANGLE_UNIT ( ) SI_UNIT ( $, .RADIAN. ) );
#168 = CARTESIAN_POINT ( 'NONE',  ( 0.000000000000000000, 0.000000000000000000, 107.0000000000000142 ) ) ;
#169 = PLANE ( 'NONE',  #31 ) ;
#170 = ORIENTED_EDGE ( 'NONE', *, *, #94, .F. ) ;
#171 = DIRECTION ( 'NONE',  ( -0.000000000000000000, -0.000000000000000000, -1.000000000000000000 ) ) ;
#172 = ORIENTED_EDGE ( 'NONE', *, *, #227, .F. ) ;
#173 = PERSON_AND_ORGANIZATION ( #160, #105 ) ;
#174 = DIRECTION ( 'NONE',  ( 0.000000000000000000, 0.000000000000000000, 1.000000000000000000 ) ) ;
#175 = LOCAL_TIME ( 19, 6, 42.00000000000000000, #134 ) ;
#176 = CC_DESIGN_PERSON_AND_ORGANIZATION_ASSIGNMENT ( #90, #58, ( #56 ) ) ;
#177 = DATE_AND_TIME ( #202, #97 ) ;
#178 = DIRECTION ( 'NONE',  ( 1.000000000000000000, 0.000000000000000000, -0.000000000000000000 ) ) ;
#179 = APPROVAL_DATE_TIME ( #2, #67 ) ;
#180 = LINE ( 'NONE', #156, #244 ) ;
#181 = LINE ( 'NONE', #39, #33 ) ;
#182 = CARTESIAN_POINT ( 'NONE',  ( 0.000000000000000000, 0.000000000000000000, 0.000000000000000000 ) ) ;
#183 = AXIS2_PLACEMENT_3D ( 'NONE', #41, #174, #79 ) ;
#184 = PRODUCT_DEFINITION ( 'NEZNÁMÝ', '', #217, #165 ) ;
#185 = AXIS2_PLACEMENT_3D ( 'NONE', #162, #43, #8 ) ;
#186 = CIRCLE ( 'NONE', #185, 8.500000000000000000 ) ;
#187 = ORIENTED_EDGE ( 'NONE', *, *, #139, .F. ) ;
#188 = DIRECTION ( 'NONE',  ( -1.000000000000000000, 0.000000000000000000, 0.000000000000000000 ) ) ;
#189 = APPLICATION_PROTOCOL_DEFINITION ( 'international standard', 'config_control_design', 1994, #127 ) ;
#190 = CC_DESIGN_PERSON_AND_ORGANIZATION_ASSIGNMENT ( #142, #198, ( #217 ) ) ;
#191 = CC_DESIGN_DATE_AND_TIME_ASSIGNMENT ( #76, #161, ( #163 ) ) ;
#192 = FACE_OUTER_BOUND ( 'NONE', #150, .T. ) ;
#193 = VECTOR ( 'NONE', #223, 1000.000000000000000 ) ;
#194 = CARTESIAN_POINT ( 'NONE',  ( 11.00000000000000000, 1.347111479062088405E-15, 0.000000000000000000 ) ) ;
#195 = EDGE_LOOP ( 'NONE', ( #231, #130 ) ) ;
#196 = CALENDAR_DATE ( 2022, 7, 7 ) ;
#197 = DIRECTION ( 'NONE',  ( 1.000000000000000000, 0.000000000000000000, 0.000000000000000000 ) ) ;
#198 = PERSON_AND_ORGANIZATION_ROLE ( 'design_supplier' ) ;
#199 = CYLINDRICAL_SURFACE ( 'NONE', #71, 8.500000000000000000 ) ;
#200 = APPROVAL_PERSON_ORGANIZATION ( #238, #207, #42 ) ;
#201 = MANIFOLD_SOLID_BREP ( 'Pøidat vysunutím3', #91 ) ;
#202 = CALENDAR_DATE ( 2022, 7, 7 ) ;
#203 = DIRECTION ( 'NONE',  ( 1.000000000000000000, 0.000000000000000000, 0.000000000000000000 ) ) ;
#204 = APPROVAL_STATUS ( 'not_yet_approved' ) ;
#205 = CARTESIAN_POINT ( 'NONE',  ( 0.000000000000000000, 0.000000000000000000, 107.0000000000000142 ) ) ;
#206 = CIRCLE ( 'NONE', #68, 11.00000000000000000 ) ;
#207 = APPROVAL ( #204, 'NEURÈENÝ' ) ;
#208 =( GEOMETRIC_REPRESENTATION_CONTEXT ( 3 ) GLOBAL_UNCERTAINTY_ASSIGNED_CONTEXT ( ( #85 ) ) GLOBAL_UNIT_ASSIGNED_CONTEXT ( ( #252, #167, #20 ) ) REPRESENTATION_CONTEXT ( 'NONE', 'WORKASPACE' ) );
#209 = CARTESIAN_POINT ( 'NONE',  ( 0.000000000000000000, 0.000000000000000000, 7.000000000000000000 ) ) ;
#210 = EDGE_LOOP ( 'NONE', ( #48, #52, #212, #28 ) ) ;
#211 = DIRECTION ( 'NONE',  ( 0.000000000000000000, 0.000000000000000000, 1.000000000000000000 ) ) ;
#212 = ORIENTED_EDGE ( 'NONE', *, *, #227, .T. ) ;
#213 = APPROVAL ( #27, 'NEURÈENÝ' ) ;
#214 = DIRECTION ( 'NONE',  ( 0.000000000000000000, 0.000000000000000000, 1.000000000000000000 ) ) ;
#215 = EDGE_LOOP ( 'NONE', ( #235, #117, #70, #172 ) ) ;
#216 = DIRECTION ( 'NONE',  ( 0.000000000000000000, 0.000000000000000000, 1.000000000000000000 ) ) ;
#217 = PRODUCT_DEFINITION_FORMATION_WITH_SPECIFIED_SOURCE ( 'LIBOVOLNÝ', '', #56, .NOT_KNOWN. ) ;
#218 = DIRECTION ( 'NONE',  ( 1.000000000000000000, 0.000000000000000000, 0.000000000000000000 ) ) ;
#219 = VERTEX_POINT ( 'NONE', #55 ) ;
#220 = PERSON_AND_ORGANIZATION_ROLE ( 'creator' ) ;
#221 = DIRECTION ( 'NONE',  ( 1.000000000000000000, 0.000000000000000000, 0.000000000000000000 ) ) ;
#222 = PERSON_AND_ORGANIZATION_ROLE ( 'creator' ) ;
#223 = DIRECTION ( 'NONE',  ( -0.000000000000000000, -0.000000000000000000, -1.000000000000000000 ) ) ;
#224 = VECTOR ( 'NONE', #171, 1000.000000000000000 ) ;
#225 = APPROVAL_ROLE ( '' ) ;
#226 = FACE_OUTER_BOUND ( 'NONE', #215, .T. ) ;
#227 = EDGE_CURVE ( 'NONE', #111, #146, #84, .T. ) ;
#228 = AXIS2_PLACEMENT_3D ( 'NONE', #209, #106, #87 ) ;
#229 = CC_DESIGN_PERSON_AND_ORGANIZATION_ASSIGNMENT ( #45, #115, ( #163 ) ) ;
#230 = ADVANCED_FACE ( 'NONE', ( #149 ), #255, .T. ) ;
#231 = ORIENTED_EDGE ( 'NONE', *, *, #29, .F. ) ;
#232 = CIRCLE ( 'NONE', #143, 8.500000000000000000 ) ;
#233 = CARTESIAN_POINT ( 'NONE',  ( 0.000000000000000000, 0.000000000000000000, 0.000000000000000000 ) ) ;
#234 = FACE_OUTER_BOUND ( 'NONE', #18, .T. ) ;
#235 = ORIENTED_EDGE ( 'NONE', *, *, #104, .F. ) ;
#236 = CYLINDRICAL_SURFACE ( 'NONE', #103, 11.00000000000000000 ) ;
#237 = DIRECTION ( 'NONE',  ( 0.000000000000000000, 0.000000000000000000, 1.000000000000000000 ) ) ;
#238 = PERSON_AND_ORGANIZATION ( #160, #105 ) ;
#239 = ORIENTED_EDGE ( 'NONE', *, *, #9, .T. ) ;
#240 = APPROVAL_DATE_TIME ( #47, #213 ) ;
#241 = DIRECTION ( 'NONE',  ( 0.000000000000000000, 0.000000000000000000, 1.000000000000000000 ) ) ;
#242 = SHAPE_DEFINITION_REPRESENTATION ( #19, #54 ) ;
#243 = DIRECTION ( 'NONE',  ( -0.000000000000000000, -0.000000000000000000, -1.000000000000000000 ) ) ;
#244 = VECTOR ( 'NONE', #243, 1000.000000000000000 ) ;
#245 = PERSON_AND_ORGANIZATION ( #160, #105 ) ;
#246 = CARTESIAN_POINT ( 'NONE',  ( -8.500000000000000000, 0.000000000000000000, 107.0000000000000142 ) ) ;
#247 = APPROVAL_PERSON_ORGANIZATION ( #245, #67, #225 ) ;
#248 = CIRCLE ( 'NONE', #109, 8.500000000000000000 ) ;
#249 = CIRCLE ( 'NONE', #132, 11.00000000000000000 ) ;
#250 = CYLINDRICAL_SURFACE ( 'NONE', #228, 11.00000000000000000 ) ;
#251 = VERTEX_POINT ( 'NONE', #92 ) ;
#252 =( LENGTH_UNIT ( ) NAMED_UNIT ( * ) SI_UNIT ( .MILLI., .METRE. ) );
#253 = ORIENTED_EDGE ( 'NONE', *, *, #32, .T. ) ;
#254 = APPLICATION_PROTOCOL_DEFINITION ( 'international standard', 'config_control_design', 1994, #159 ) ;
#255 = CYLINDRICAL_SURFACE ( 'NONE', #34, 8.500000000000000000 ) ;
ENDSEC;
END-ISO-10303-21;
