ISO-10303-21;
HEADER;
FILE_DESCRIPTION (( 'STEP AP203' ),
    '1' );
FILE_NAME ('b90c.STEP',
    '2022-07-07T17:18:15',
    ( '' ),
    ( '' ),
    'SwSTEP 2.0',
    'SolidWorks 2019',
    '' );
FILE_SCHEMA (( 'CONFIG_CONTROL_DESIGN' ));
ENDSEC;

DATA;
#1 = APPROVAL_DATE_TIME ( #136, #74 ) ;
#2 = DIRECTION ( 'NONE',  ( 1.000000000000000000, 0.000000000000000000, 0.000000000000000000 ) ) ;
#3 = DATE_AND_TIME ( #155, #121 ) ;
#4 = CIRCLE ( 'NONE', #150, 9.000000000000000000 ) ;
#5 = PRODUCT ( 'b90c', 'b90c', '', ( #241 ) ) ;
#6 = LOCAL_TIME ( 19, 18, 15.00000000000000000, #201 ) ;
#7 = CALENDAR_DATE ( 2022, 7, 7 ) ;
#8 = CC_DESIGN_PERSON_AND_ORGANIZATION_ASSIGNMENT ( #96, #115, ( #39 ) ) ;
#9 = APPROVAL_ROLE ( '' ) ;
#10 = CIRCLE ( 'NONE', #181, 9.000000000000000000 ) ;
#11 = APPROVAL_PERSON_ORGANIZATION ( #236, #74, #131 ) ;
#12 = DIRECTION ( 'NONE',  ( 1.000000000000000000, 0.000000000000000000, -0.000000000000000000 ) ) ;
#13 = EDGE_LOOP ( 'NONE', ( #61, #233, #36, #184 ) ) ;
#14 = AXIS2_PLACEMENT_3D ( 'NONE', #189, #54, #56 ) ;
#15 = DIRECTION ( 'NONE',  ( 0.000000000000000000, 0.000000000000000000, 1.000000000000000000 ) ) ;
#16 = LOCAL_TIME ( 19, 18, 15.00000000000000000, #240 ) ;
#17 = CYLINDRICAL_SURFACE ( 'NONE', #14, 9.000000000000000000 ) ;
#18 = ADVANCED_FACE ( 'NONE', ( #134, #200 ), #63, .T. ) ;
#19 = ORIENTED_EDGE ( 'NONE', *, *, #180, .F. ) ;
#20 = VERTEX_POINT ( 'NONE', #182 ) ;
#21 = AXIS2_PLACEMENT_3D ( 'NONE', #52, #212, #107 ) ;
#22 = SECURITY_CLASSIFICATION_LEVEL ( 'unclassified' ) ;
#23 =( GEOMETRIC_REPRESENTATION_CONTEXT ( 3 ) GLOBAL_UNCERTAINTY_ASSIGNED_CONTEXT ( ( #59 ) ) GLOBAL_UNIT_ASSIGNED_CONTEXT ( ( #195, #122, #166 ) ) REPRESENTATION_CONTEXT ( 'NONE', 'WORKASPACE' ) );
#24 = ADVANCED_FACE ( 'NONE', ( #83 ), #204, .T. ) ;
#25 = APPROVAL_STATUS ( 'not_yet_approved' ) ;
#26 = PERSON_AND_ORGANIZATION_ROLE ( 'design_supplier' ) ;
#27 = ORIENTED_EDGE ( 'NONE', *, *, #60, .T. ) ;
#28 = CARTESIAN_POINT ( 'NONE',  ( 9.000000000000000000, 1.102182119232617714E-15, 7.000000000000000000 ) ) ;
#29 = PERSON_AND_ORGANIZATION_ROLE ( 'classification_officer' ) ;
#30 = DIRECTION ( 'NONE',  ( 0.000000000000000000, 0.000000000000000000, 1.000000000000000000 ) ) ;
#31 = COORDINATED_UNIVERSAL_TIME_OFFSET ( 1, 0, .AHEAD. ) ;
#32 = LOCAL_TIME ( 19, 18, 15.00000000000000000, #31 ) ;
#33 = CARTESIAN_POINT ( 'NONE',  ( 0.000000000000000000, 0.000000000000000000, 7.000000000000000000 ) ) ;
#34 = CARTESIAN_POINT ( 'NONE',  ( -9.000000000000000000, 0.000000000000000000, 0.000000000000000000 ) ) ;
#35 = DIRECTION ( 'NONE',  ( 1.000000000000000000, 0.000000000000000000, 0.000000000000000000 ) ) ;
#36 = ORIENTED_EDGE ( 'NONE', *, *, #206, .T. ) ;
#37 = CARTESIAN_POINT ( 'NONE',  ( -6.250000000000000000, 0.000000000000000000, 257.0000000000000000 ) ) ;
#38 = CIRCLE ( 'NONE', #175, 6.250000000000000000 ) ;
#39 = PRODUCT_DEFINITION ( 'NEZNÁMÝ', '', #48, #254 ) ;
#40 = VECTOR ( 'NONE', #247, 1000.000000000000000 ) ;
#41 = APPLICATION_PROTOCOL_DEFINITION ( 'international standard', 'config_control_design', 1994, #190 ) ;
#42 = DATE_AND_TIME ( #7, #32 ) ;
#43 = APPROVAL_ROLE ( '' ) ;
#44 = CC_DESIGN_PERSON_AND_ORGANIZATION_ASSIGNMENT ( #217, #82, ( #5 ) ) ;
#45 = CARTESIAN_POINT ( 'NONE',  ( -6.250000000000000000, 0.000000000000000000, 257.0000000000000000 ) ) ;
#46 = DIRECTION ( 'NONE',  ( 1.000000000000000000, 0.000000000000000000, 0.000000000000000000 ) ) ;
#47 = AXIS2_PLACEMENT_3D ( 'NONE', #249, #124, #244 ) ;
#48 = PRODUCT_DEFINITION_FORMATION_WITH_SPECIFIED_SOURCE ( 'LIBOVOLNÝ', '', #5, .NOT_KNOWN. ) ;
#49 = CARTESIAN_POINT ( 'NONE',  ( 9.000000000000000000, 1.102182119232617714E-15, 0.000000000000000000 ) ) ;
#50 = AXIS2_PLACEMENT_3D ( 'NONE', #219, #30, #162 ) ;
#51 = CC_DESIGN_APPROVAL ( #243, ( #39 ) ) ;
#52 = CARTESIAN_POINT ( 'NONE',  ( 0.000000000000000000, 0.000000000000000000, 7.000000000000000000 ) ) ;
#53 = EDGE_LOOP ( 'NONE', ( #106, #214 ) ) ;
#54 = DIRECTION ( 'NONE',  ( -0.000000000000000000, -0.000000000000000000, -1.000000000000000000 ) ) ;
#55 = EDGE_CURVE ( 'NONE', #80, #194, #197, .T. ) ;
#56 = DIRECTION ( 'NONE',  ( -1.000000000000000000, 0.000000000000000000, 0.000000000000000000 ) ) ;
#57 = ORIENTED_EDGE ( 'NONE', *, *, #237, .T. ) ;
#58 = CARTESIAN_POINT ( 'NONE',  ( 6.250000000000000000, 7.654042494670957606E-16, 257.0000000000000000 ) ) ;
#59 = UNCERTAINTY_MEASURE_WITH_UNIT (LENGTH_MEASURE( 1.000000000000000082E-05 ), #195, 'distance_accuracy_value', 'NONE');
#60 = EDGE_CURVE ( 'NONE', #149, #109, #81, .T. ) ;
#61 = ORIENTED_EDGE ( 'NONE', *, *, #103, .F. ) ;
#62 = PERSON_AND_ORGANIZATION_ROLE ( 'creator' ) ;
#63 = PLANE ( 'NONE',  #108 ) ;
#64 = PERSON_AND_ORGANIZATION ( #252, #93 ) ;
#65 = VERTEX_POINT ( 'NONE', #158 ) ;
#66 = CARTESIAN_POINT ( 'NONE',  ( 0.000000000000000000, 0.000000000000000000, 7.000000000000000000 ) ) ;
#67 = APPROVAL_DATE_TIME ( #205, #191 ) ;
#68 = DIRECTION ( 'NONE',  ( 0.000000000000000000, 0.000000000000000000, 1.000000000000000000 ) ) ;
#69 = ADVANCED_BREP_SHAPE_REPRESENTATION ( 'b90c', ( #234, #242 ), #23 ) ;
#70 = DIRECTION ( 'NONE',  ( 1.000000000000000000, 0.000000000000000000, 0.000000000000000000 ) ) ;
#71 = DIRECTION ( 'NONE',  ( -0.000000000000000000, -0.000000000000000000, -1.000000000000000000 ) ) ;
#72 = LINE ( 'NONE', #37, #40 ) ;
#73 = FACE_OUTER_BOUND ( 'NONE', #250, .T. ) ;
#74 = APPROVAL ( #179, 'NEURÈENÝ' ) ;
#75 = CARTESIAN_POINT ( 'NONE',  ( 0.000000000000000000, 0.000000000000000000, 7.000000000000000000 ) ) ;
#76 = FACE_OUTER_BOUND ( 'NONE', #198, .T. ) ;
#77 = VERTEX_POINT ( 'NONE', #45 ) ;
#78 = COORDINATED_UNIVERSAL_TIME_OFFSET ( 1, 0, .AHEAD. ) ;
#79 = AXIS2_PLACEMENT_3D ( 'NONE', #66, #68, #2 ) ;
#80 = VERTEX_POINT ( 'NONE', #138 ) ;
#81 = LINE ( 'NONE', #28, #225 ) ;
#82 = PERSON_AND_ORGANIZATION_ROLE ( 'design_owner' ) ;
#83 = FACE_OUTER_BOUND ( 'NONE', #53, .T. ) ;
#84 = CALENDAR_DATE ( 2022, 7, 7 ) ;
#85 = CC_DESIGN_PERSON_AND_ORGANIZATION_ASSIGNMENT ( #177, #29, ( #207 ) ) ;
#86 = CARTESIAN_POINT ( 'NONE',  ( 0.000000000000000000, 0.000000000000000000, 257.0000000000000000 ) ) ;
#87 = DIRECTION ( 'NONE',  ( 1.000000000000000000, 0.000000000000000000, 0.000000000000000000 ) ) ;
#88 = AXIS2_PLACEMENT_3D ( 'NONE', #187, #231, #87 ) ;
#89 = DIRECTION ( 'NONE',  ( -1.000000000000000000, 0.000000000000000000, 0.000000000000000000 ) ) ;
#90 = CYLINDRICAL_SURFACE ( 'NONE', #164, 6.250000000000000000 ) ;
#91 = ORIENTED_EDGE ( 'NONE', *, *, #153, .F. ) ;
#92 = EDGE_CURVE ( 'NONE', #77, #20, #112, .T. ) ;
#93 = ORGANIZATION ( 'NEURÈENÝ', 'NEURÈENÝ', '' ) ;
#94 = PERSON_AND_ORGANIZATION ( #252, #93 ) ;
#95 = ORIENTED_EDGE ( 'NONE', *, *, #206, .F. ) ;
#96 = PERSON_AND_ORGANIZATION ( #252, #93 ) ;
#97 = ORIENTED_EDGE ( 'NONE', *, *, #169, .T. ) ;
#98 = DIRECTION ( 'NONE',  ( 0.000000000000000000, 0.000000000000000000, 1.000000000000000000 ) ) ;
#99 = DIRECTION ( 'NONE',  ( 1.000000000000000000, 0.000000000000000000, -0.000000000000000000 ) ) ;
#100 = CALENDAR_DATE ( 2022, 7, 7 ) ;
#101 = APPROVAL_DATE_TIME ( #42, #243 ) ;
#102 = CARTESIAN_POINT ( 'NONE',  ( -9.000000000000000000, 0.000000000000000000, 7.000000000000000000 ) ) ;
#103 = EDGE_CURVE ( 'NONE', #20, #77, #38, .T. ) ;
#104 = LINE ( 'NONE', #102, #226 ) ;
#105 = CARTESIAN_POINT ( 'NONE',  ( 9.000000000000000000, 1.102182119232617714E-15, 7.000000000000000000 ) ) ;
#106 = ORIENTED_EDGE ( 'NONE', *, *, #92, .T. ) ;
#107 = DIRECTION ( 'NONE',  ( 1.000000000000000000, 0.000000000000000000, 0.000000000000000000 ) ) ;
#108 = AXIS2_PLACEMENT_3D ( 'NONE', #218, #216, #99 ) ;
#109 = VERTEX_POINT ( 'NONE', #49 ) ;
#110 = DIRECTION ( 'NONE',  ( -1.000000000000000000, 0.000000000000000000, 0.000000000000000000 ) ) ;
#111 = FACE_OUTER_BOUND ( 'NONE', #147, .T. ) ;
#112 = CIRCLE ( 'NONE', #142, 6.250000000000000000 ) ;
#113 = EDGE_CURVE ( 'NONE', #65, #203, #104, .T. ) ;
#114 = VECTOR ( 'NONE', #229, 1000.000000000000000 ) ;
#115 = PERSON_AND_ORGANIZATION_ROLE ( 'creator' ) ;
#116 = CALENDAR_DATE ( 2022, 7, 7 ) ;
#117 = COORDINATED_UNIVERSAL_TIME_OFFSET ( 1, 0, .AHEAD. ) ;
#118 = DIRECTION ( 'NONE',  ( -0.000000000000000000, -0.000000000000000000, -1.000000000000000000 ) ) ;
#119 = CIRCLE ( 'NONE', #88, 9.000000000000000000 ) ;
#120 = ADVANCED_FACE ( 'NONE', ( #141 ), #186, .T. ) ;
#121 = LOCAL_TIME ( 19, 18, 15.00000000000000000, #78 ) ;
#122 =( NAMED_UNIT ( * ) PLANE_ANGLE_UNIT ( ) SI_UNIT ( $, .RADIAN. ) );
#123 = ORIENTED_EDGE ( 'NONE', *, *, #113, .T. ) ;
#124 = DIRECTION ( 'NONE',  ( 0.000000000000000000, 0.000000000000000000, 1.000000000000000000 ) ) ;
#125 = DIRECTION ( 'NONE',  ( 0.000000000000000000, 0.000000000000000000, 1.000000000000000000 ) ) ;
#126 = CC_DESIGN_SECURITY_CLASSIFICATION ( #207, ( #48 ) ) ;
#127 = CC_DESIGN_PERSON_AND_ORGANIZATION_ASSIGNMENT ( #223, #26, ( #48 ) ) ;
#128 = FACE_OUTER_BOUND ( 'NONE', #248, .T. ) ;
#129 = AXIS2_PLACEMENT_3D ( 'NONE', #161, #143, #89 ) ;
#130 = ORIENTED_EDGE ( 'NONE', *, *, #174, .F. ) ;
#131 = APPROVAL_ROLE ( '' ) ;
#132 = ORIENTED_EDGE ( 'NONE', *, *, #180, .T. ) ;
#133 = APPROVAL_PERSON_ORGANIZATION ( #64, #243, #43 ) ;
#134 = FACE_BOUND ( 'NONE', #173, .T. ) ;
#135 = DIRECTION ( 'NONE',  ( 0.000000000000000000, 0.000000000000000000, 1.000000000000000000 ) ) ;
#136 = DATE_AND_TIME ( #100, #16 ) ;
#137 = PRODUCT_DEFINITION_SHAPE ( 'NONE', 'NONE',  #39 ) ;
#138 = CARTESIAN_POINT ( 'NONE',  ( -6.250000000000000000, 0.000000000000000000, 7.000000000000000000 ) ) ;
#139 = APPROVAL_STATUS ( 'not_yet_approved' ) ;
#140 = ADVANCED_FACE ( 'NONE', ( #76 ), #90, .T. ) ;
#141 = FACE_OUTER_BOUND ( 'NONE', #13, .T. ) ;
#142 = AXIS2_PLACEMENT_3D ( 'NONE', #222, #135, #188 ) ;
#143 = DIRECTION ( 'NONE',  ( -0.000000000000000000, -0.000000000000000000, -1.000000000000000000 ) ) ;
#144 = CARTESIAN_POINT ( 'NONE',  ( 0.000000000000000000, 0.000000000000000000, 0.000000000000000000 ) ) ;
#145 = ORIENTED_EDGE ( 'NONE', *, *, #92, .F. ) ;
#146 = DIRECTION ( 'NONE',  ( -0.000000000000000000, -0.000000000000000000, -1.000000000000000000 ) ) ;
#147 = EDGE_LOOP ( 'NONE', ( #91, #27, #132, #178 ) ) ;
#148 = DIRECTION ( 'NONE',  ( -0.000000000000000000, -0.000000000000000000, -1.000000000000000000 ) ) ;
#149 = VERTEX_POINT ( 'NONE', #105 ) ;
#150 = AXIS2_PLACEMENT_3D ( 'NONE', #144, #228, #209 ) ;
#151 = APPROVAL_PERSON_ORGANIZATION ( #94, #191, #9 ) ;
#152 = ORIENTED_EDGE ( 'NONE', *, *, #213, .T. ) ;
#153 = EDGE_CURVE ( 'NONE', #149, #65, #119, .T. ) ;
#154 = CC_DESIGN_APPROVAL ( #74, ( #207 ) ) ;
#155 = CALENDAR_DATE ( 2022, 7, 7 ) ;
#156 = ADVANCED_FACE ( 'NONE', ( #73 ), #17, .T. ) ;
#157 = CARTESIAN_POINT ( 'NONE',  ( 0.000000000000000000, 0.000000000000000000, 0.000000000000000000 ) ) ;
#158 = CARTESIAN_POINT ( 'NONE',  ( -9.000000000000000000, 0.000000000000000000, 7.000000000000000000 ) ) ;
#159 = DATE_TIME_ROLE ( 'creation_date' ) ;
#160 = CC_DESIGN_DATE_AND_TIME_ASSIGNMENT ( #3, #163, ( #207 ) ) ;
#161 = CARTESIAN_POINT ( 'NONE',  ( 0.000000000000000000, 0.000000000000000000, 257.0000000000000000 ) ) ;
#162 = DIRECTION ( 'NONE',  ( 1.000000000000000000, 0.000000000000000000, -0.000000000000000000 ) ) ;
#163 = DATE_TIME_ROLE ( 'classification_date' ) ;
#164 = AXIS2_PLACEMENT_3D ( 'NONE', #167, #148, #168 ) ;
#165 = PRODUCT_RELATED_PRODUCT_CATEGORY ( 'detail', '', ( #5 ) ) ;
#166 =( NAMED_UNIT ( * ) SI_UNIT ( $, .STERADIAN. ) SOLID_ANGLE_UNIT ( ) );
#167 = CARTESIAN_POINT ( 'NONE',  ( 0.000000000000000000, 0.000000000000000000, 257.0000000000000000 ) ) ;
#168 = DIRECTION ( 'NONE',  ( -1.000000000000000000, 0.000000000000000000, 0.000000000000000000 ) ) ;
#169 = EDGE_CURVE ( 'NONE', #203, #109, #172, .T. ) ;
#170 = LINE ( 'NONE', #58, #114 ) ;
#171 = ORIENTED_EDGE ( 'NONE', *, *, #55, .F. ) ;
#172 = CIRCLE ( 'NONE', #47, 9.000000000000000000 ) ;
#173 = EDGE_LOOP ( 'NONE', ( #171, #95 ) ) ;
#174 = EDGE_CURVE ( 'NONE', #20, #194, #170, .T. ) ;
#175 = AXIS2_PLACEMENT_3D ( 'NONE', #86, #245, #70 ) ;
#176 = ADVANCED_FACE ( 'NONE', ( #128 ), #227, .F. ) ;
#177 = PERSON_AND_ORGANIZATION ( #252, #93 ) ;
#178 = ORIENTED_EDGE ( 'NONE', *, *, #113, .F. ) ;
#179 = APPROVAL_STATUS ( 'not_yet_approved' ) ;
#180 = EDGE_CURVE ( 'NONE', #109, #203, #4, .T. ) ;
#181 = AXIS2_PLACEMENT_3D ( 'NONE', #33, #15, #35 ) ;
#182 = CARTESIAN_POINT ( 'NONE',  ( 6.250000000000000000, 7.654042494670957606E-16, 257.0000000000000000 ) ) ;
#183 = SHAPE_DEFINITION_REPRESENTATION ( #137, #69 ) ;
#184 = ORIENTED_EDGE ( 'NONE', *, *, #237, .F. ) ;
#185 = APPLICATION_PROTOCOL_DEFINITION ( 'international standard', 'config_control_design', 1994, #224 ) ;
#186 = CYLINDRICAL_SURFACE ( 'NONE', #129, 6.250000000000000000 ) ;
#187 = CARTESIAN_POINT ( 'NONE',  ( 0.000000000000000000, 0.000000000000000000, 7.000000000000000000 ) ) ;
#188 = DIRECTION ( 'NONE',  ( 1.000000000000000000, 0.000000000000000000, 0.000000000000000000 ) ) ;
#189 = CARTESIAN_POINT ( 'NONE',  ( 0.000000000000000000, 0.000000000000000000, 7.000000000000000000 ) ) ;
#190 = APPLICATION_CONTEXT ( 'configuration controlled 3d designs of mechanical parts and assemblies' ) ;
#191 = APPROVAL ( #25, 'NEURÈENÝ' ) ;
#192 = CYLINDRICAL_SURFACE ( 'NONE', #255, 9.000000000000000000 ) ;
#193 = CIRCLE ( 'NONE', #21, 6.250000000000000000 ) ;
#194 = VERTEX_POINT ( 'NONE', #210 ) ;
#195 =( LENGTH_UNIT ( ) NAMED_UNIT ( * ) SI_UNIT ( .MILLI., .METRE. ) );
#196 = ORIENTED_EDGE ( 'NONE', *, *, #55, .T. ) ;
#197 = CIRCLE ( 'NONE', #79, 6.250000000000000000 ) ;
#198 = EDGE_LOOP ( 'NONE', ( #130, #145, #57, #196 ) ) ;
#199 = LOCAL_TIME ( 19, 18, 15.00000000000000000, #117 ) ;
#200 = FACE_OUTER_BOUND ( 'NONE', #253, .T. ) ;
#201 = COORDINATED_UNIVERSAL_TIME_OFFSET ( 1, 0, .AHEAD. ) ;
#202 = CC_DESIGN_DATE_AND_TIME_ASSIGNMENT ( #220, #159, ( #39 ) ) ;
#203 = VERTEX_POINT ( 'NONE', #34 ) ;
#204 = PLANE ( 'NONE',  #50 ) ;
#205 = DATE_AND_TIME ( #116, #199 ) ;
#206 = EDGE_CURVE ( 'NONE', #194, #80, #193, .T. ) ;
#207 = SECURITY_CLASSIFICATION ( '', '', #22 ) ;
#208 = ORIENTED_EDGE ( 'NONE', *, *, #169, .F. ) ;
#209 = DIRECTION ( 'NONE',  ( 1.000000000000000000, 0.000000000000000000, 0.000000000000000000 ) ) ;
#210 = CARTESIAN_POINT ( 'NONE',  ( 6.250000000000000000, 7.654042494670957606E-16, 7.000000000000000000 ) ) ;
#211 = ORIENTED_EDGE ( 'NONE', *, *, #213, .F. ) ;
#212 = DIRECTION ( 'NONE',  ( 0.000000000000000000, 0.000000000000000000, 1.000000000000000000 ) ) ;
#213 = EDGE_CURVE ( 'NONE', #65, #149, #10, .T. ) ;
#214 = ORIENTED_EDGE ( 'NONE', *, *, #103, .T. ) ;
#215 = PERSON_AND_ORGANIZATION ( #252, #93 ) ;
#216 = DIRECTION ( 'NONE',  ( 0.000000000000000000, 0.000000000000000000, 1.000000000000000000 ) ) ;
#217 = PERSON_AND_ORGANIZATION ( #252, #93 ) ;
#218 = CARTESIAN_POINT ( 'NONE',  ( 0.000000000000000000, 0.000000000000000000, 7.000000000000000000 ) ) ;
#219 = CARTESIAN_POINT ( 'NONE',  ( 0.000000000000000000, 0.000000000000000000, 257.0000000000000000 ) ) ;
#220 = DATE_AND_TIME ( #84, #6 ) ;
#221 = CLOSED_SHELL ( 'NONE', ( #120, #251, #156, #18, #176, #140, #24 ) ) ;
#222 = CARTESIAN_POINT ( 'NONE',  ( 0.000000000000000000, 0.000000000000000000, 257.0000000000000000 ) ) ;
#223 = PERSON_AND_ORGANIZATION ( #252, #93 ) ;
#224 = APPLICATION_CONTEXT ( 'configuration controlled 3d designs of mechanical parts and assemblies' ) ;
#225 = VECTOR ( 'NONE', #118, 1000.000000000000000 ) ;
#226 = VECTOR ( 'NONE', #71, 1000.000000000000000 ) ;
#227 = PLANE ( 'NONE',  #238 ) ;
#228 = DIRECTION ( 'NONE',  ( 0.000000000000000000, 0.000000000000000000, 1.000000000000000000 ) ) ;
#229 = DIRECTION ( 'NONE',  ( -0.000000000000000000, -0.000000000000000000, -1.000000000000000000 ) ) ;
#230 = ORIENTED_EDGE ( 'NONE', *, *, #153, .T. ) ;
#231 = DIRECTION ( 'NONE',  ( 0.000000000000000000, 0.000000000000000000, 1.000000000000000000 ) ) ;
#232 = CC_DESIGN_PERSON_AND_ORGANIZATION_ASSIGNMENT ( #215, #62, ( #48 ) ) ;
#233 = ORIENTED_EDGE ( 'NONE', *, *, #174, .T. ) ;
#234 = MANIFOLD_SOLID_BREP ( 'Pøidat vysunutím3', #221 ) ;
#235 = ORIENTED_EDGE ( 'NONE', *, *, #60, .F. ) ;
#236 = PERSON_AND_ORGANIZATION ( #252, #93 ) ;
#237 = EDGE_CURVE ( 'NONE', #77, #80, #72, .T. ) ;
#238 = AXIS2_PLACEMENT_3D ( 'NONE', #246, #125, #12 ) ;
#239 = CC_DESIGN_APPROVAL ( #191, ( #48 ) ) ;
#240 = COORDINATED_UNIVERSAL_TIME_OFFSET ( 1, 0, .AHEAD. ) ;
#241 = MECHANICAL_CONTEXT ( 'NONE', #224, 'mechanical' ) ;
#242 = AXIS2_PLACEMENT_3D ( 'NONE', #157, #98, #46 ) ;
#243 = APPROVAL ( #139, 'NEURÈENÝ' ) ;
#244 = DIRECTION ( 'NONE',  ( 1.000000000000000000, 0.000000000000000000, 0.000000000000000000 ) ) ;
#245 = DIRECTION ( 'NONE',  ( 0.000000000000000000, 0.000000000000000000, 1.000000000000000000 ) ) ;
#246 = CARTESIAN_POINT ( 'NONE',  ( 0.000000000000000000, 0.000000000000000000, 0.000000000000000000 ) ) ;
#247 = DIRECTION ( 'NONE',  ( -0.000000000000000000, -0.000000000000000000, -1.000000000000000000 ) ) ;
#248 = EDGE_LOOP ( 'NONE', ( #208, #19 ) ) ;
#249 = CARTESIAN_POINT ( 'NONE',  ( 0.000000000000000000, 0.000000000000000000, 0.000000000000000000 ) ) ;
#250 = EDGE_LOOP ( 'NONE', ( #235, #211, #123, #97 ) ) ;
#251 = ADVANCED_FACE ( 'NONE', ( #111 ), #192, .T. ) ;
#252 = PERSON ( 'NEURÈENÝ', 'NEURÈENÝ', 'NEURÈENÝ', ('NEURÈENÝ'), ('NEURÈENÝ'), ('NEURÈENÝ') ) ;
#253 = EDGE_LOOP ( 'NONE', ( #152, #230 ) ) ;
#254 = DESIGN_CONTEXT ( 'detailed design', #190, 'design' ) ;
#255 = AXIS2_PLACEMENT_3D ( 'NONE', #75, #146, #110 ) ;
ENDSEC;
END-ISO-10303-21;
