ISO-10303-21;
HEADER;
FILE_DESCRIPTION (( 'STEP AP203' ),
    '1' );
FILE_NAME ('c6d2.STEP',
    '2023-02-13T14:49:31',
    ( '' ),
    ( '' ),
    'SwSTEP 2.0',
    'SolidWorks 2019',
    '' );
FILE_SCHEMA (( 'CONFIG_CONTROL_DESIGN' ));
ENDSEC;

DATA;
#1 = ORIENTED_EDGE ( 'NONE', *, *, #145, .F. ) ;
#2 = APPROVAL_PERSON_ORGANIZATION ( #249, #13, #150 ) ;
#3 = DIRECTION ( 'NONE',  ( -0.000000000000000000, -0.000000000000000000, -1.000000000000000000 ) ) ;
#4 = VECTOR ( 'NONE', #107, 1000.000000000000000 ) ;
#5 = ORIENTED_EDGE ( 'NONE', *, *, #138, .T. ) ;
#6 = DIRECTION ( 'NONE',  ( 0.000000000000000000, 0.000000000000000000, 1.000000000000000000 ) ) ;
#7 = CC_DESIGN_DATE_AND_TIME_ASSIGNMENT ( #61, #215, ( #26 ) ) ;
#8 = COORDINATED_UNIVERSAL_TIME_OFFSET ( 1, 0, .AHEAD. ) ;
#9 = DATE_AND_TIME ( #196, #102 ) ;
#10 = ORIENTED_EDGE ( 'NONE', *, *, #89, .T. ) ;
#11 = CARTESIAN_POINT ( 'NONE',  ( 0.000000000000000000, 0.000000000000000000, 5.000000000000000000 ) ) ;
#12 = CIRCLE ( 'NONE', #163, 6.000000000000000888 ) ;
#13 = APPROVAL ( #76, 'NEURÈENÝ' ) ;
#14 = CARTESIAN_POINT ( 'NONE',  ( 0.000000000000000000, 0.000000000000000000, 0.000000000000000000 ) ) ;
#15 = VERTEX_POINT ( 'NONE', #229 ) ;
#16 = DIRECTION ( 'NONE',  ( 0.000000000000000000, 0.000000000000000000, 1.000000000000000000 ) ) ;
#17 = PLANE ( 'NONE',  #179 ) ;
#18 = DIRECTION ( 'NONE',  ( 0.000000000000000000, 0.000000000000000000, 1.000000000000000000 ) ) ;
#19 = ADVANCED_FACE ( 'NONE', ( #37 ), #17, .T. ) ;
#20 = CARTESIAN_POINT ( 'NONE',  ( -3.750000000000000000, 0.000000000000000000, 250.0000000000000000 ) ) ;
#21 = EDGE_CURVE ( 'NONE', #81, #167, #214, .T. ) ;
#22 = AXIS2_PLACEMENT_3D ( 'NONE', #14, #16, #154 ) ;
#23 = DIRECTION ( 'NONE',  ( 0.000000000000000000, 0.000000000000000000, 1.000000000000000000 ) ) ;
#24 = EDGE_LOOP ( 'NONE', ( #69, #5 ) ) ;
#25 = CARTESIAN_POINT ( 'NONE',  ( -3.750000000000000000, 0.000000000000000000, 250.0000000000000000 ) ) ;
#26 = PRODUCT_DEFINITION ( 'NEZNÁMÝ', '', #144, #147 ) ;
#27 = ORIENTED_EDGE ( 'NONE', *, *, #21, .F. ) ;
#28 = CARTESIAN_POINT ( 'NONE',  ( 0.000000000000000000, 0.000000000000000000, 0.000000000000000000 ) ) ;
#29 = APPROVAL ( #157, 'NEURÈENÝ' ) ;
#30 = AXIS2_PLACEMENT_3D ( 'NONE', #254, #23, #100 ) ;
#31 = ORIENTED_EDGE ( 'NONE', *, *, #95, .F. ) ;
#32 = ORGANIZATION ( 'NEURÈENÝ', 'NEURÈENÝ', '' ) ;
#33 = CARTESIAN_POINT ( 'NONE',  ( 6.000000000000000888, 7.347880794884120722E-16, 5.000000000000000000 ) ) ;
#34 = APPROVAL_DATE_TIME ( #9, #29 ) ;
#35 = APPROVAL_ROLE ( '' ) ;
#36 = CC_DESIGN_APPROVAL ( #202, ( #26 ) ) ;
#37 = FACE_OUTER_BOUND ( 'NONE', #42, .T. ) ;
#38 = VECTOR ( 'NONE', #80, 1000.000000000000000 ) ;
#39 = CARTESIAN_POINT ( 'NONE',  ( 0.000000000000000000, 0.000000000000000000, 5.000000000000000000 ) ) ;
#40 = CARTESIAN_POINT ( 'NONE',  ( 0.000000000000000000, 0.000000000000000000, 5.000000000000000000 ) ) ;
#41 = CYLINDRICAL_SURFACE ( 'NONE', #183, 3.750000000000000000 ) ;
#42 = EDGE_LOOP ( 'NONE', ( #237, #128 ) ) ;
#43 = CC_DESIGN_PERSON_AND_ORGANIZATION_ASSIGNMENT ( #225, #113, ( #144 ) ) ;
#44 = CYLINDRICAL_SURFACE ( 'NONE', #77, 6.000000000000000888 ) ;
#45 = VERTEX_POINT ( 'NONE', #131 ) ;
#46 = APPLICATION_PROTOCOL_DEFINITION ( 'international standard', 'config_control_design', 1994, #136 ) ;
#47 = CC_DESIGN_PERSON_AND_ORGANIZATION_ASSIGNMENT ( #111, #59, ( #90 ) ) ;
#48 = CARTESIAN_POINT ( 'NONE',  ( -6.000000000000000888, 0.000000000000000000, 5.000000000000000000 ) ) ;
#49 = DATE_AND_TIME ( #148, #117 ) ;
#50 = ORIENTED_EDGE ( 'NONE', *, *, #141, .F. ) ;
#51 = DIRECTION ( 'NONE',  ( 0.000000000000000000, 0.000000000000000000, 1.000000000000000000 ) ) ;
#52 = APPLICATION_CONTEXT ( 'configuration controlled 3d designs of mechanical parts and assemblies' ) ;
#53 = CARTESIAN_POINT ( 'NONE',  ( 0.000000000000000000, 0.000000000000000000, 5.000000000000000000 ) ) ;
#54 = DIRECTION ( 'NONE',  ( 1.000000000000000000, 0.000000000000000000, -0.000000000000000000 ) ) ;
#55 = LINE ( 'NONE', #48, #236 ) ;
#56 = CIRCLE ( 'NONE', #174, 3.750000000000000000 ) ;
#57 = DIRECTION ( 'NONE',  ( -1.000000000000000000, 0.000000000000000000, 0.000000000000000000 ) ) ;
#58 = ORIENTED_EDGE ( 'NONE', *, *, #89, .F. ) ;
#59 = PERSON_AND_ORGANIZATION_ROLE ( 'classification_officer' ) ;
#60 = DIRECTION ( 'NONE',  ( 0.000000000000000000, 0.000000000000000000, 1.000000000000000000 ) ) ;
#61 = DATE_AND_TIME ( #91, #221 ) ;
#62 = AXIS2_PLACEMENT_3D ( 'NONE', #28, #104, #184 ) ;
#63 = ADVANCED_FACE ( 'NONE', ( #209 ), #255, .F. ) ;
#64 = FACE_OUTER_BOUND ( 'NONE', #248, .T. ) ;
#65 = ORIENTED_EDGE ( 'NONE', *, *, #227, .T. ) ;
#66 = EDGE_LOOP ( 'NONE', ( #73, #222 ) ) ;
#67 = CARTESIAN_POINT ( 'NONE',  ( 3.750000000000000000, 4.592425496802573972E-16, 250.0000000000000000 ) ) ;
#68 = AXIS2_PLACEMENT_3D ( 'NONE', #140, #85, #165 ) ;
#69 = ORIENTED_EDGE ( 'NONE', *, *, #175, .T. ) ;
#70 = PERSON_AND_ORGANIZATION ( #118, #32 ) ;
#71 = UNCERTAINTY_MEASURE_WITH_UNIT (LENGTH_MEASURE( 1.000000000000000082E-05 ), #238, 'distance_accuracy_value', 'NONE');
#72 = MANIFOLD_SOLID_BREP ( 'Pøidat vysunutím3', #106 ) ;
#73 = ORIENTED_EDGE ( 'NONE', *, *, #105, .F. ) ;
#74 = DIRECTION ( 'NONE',  ( 1.000000000000000000, 0.000000000000000000, 0.000000000000000000 ) ) ;
#75 = DIRECTION ( 'NONE',  ( -0.000000000000000000, -0.000000000000000000, -1.000000000000000000 ) ) ;
#76 = APPROVAL_STATUS ( 'not_yet_approved' ) ;
#77 = AXIS2_PLACEMENT_3D ( 'NONE', #178, #233, #119 ) ;
#78 = APPLICATION_PROTOCOL_DEFINITION ( 'international standard', 'config_control_design', 1994, #52 ) ;
#79 = CIRCLE ( 'NONE', #228, 3.750000000000000000 ) ;
#80 = DIRECTION ( 'NONE',  ( -0.000000000000000000, -0.000000000000000000, -1.000000000000000000 ) ) ;
#81 = VERTEX_POINT ( 'NONE', #20 ) ;
#82 = CALENDAR_DATE ( 2023, 13, 2 ) ;
#83 = CC_DESIGN_PERSON_AND_ORGANIZATION_ASSIGNMENT ( #206, #190, ( #26 ) ) ;
#84 =( GEOMETRIC_REPRESENTATION_CONTEXT ( 3 ) GLOBAL_UNCERTAINTY_ASSIGNED_CONTEXT ( ( #71 ) ) GLOBAL_UNIT_ASSIGNED_CONTEXT ( ( #238, #92, #152 ) ) REPRESENTATION_CONTEXT ( 'NONE', 'WORKASPACE' ) );
#85 = DIRECTION ( 'NONE',  ( 0.000000000000000000, 0.000000000000000000, 1.000000000000000000 ) ) ;
#86 = CC_DESIGN_APPROVAL ( #29, ( #90 ) ) ;
#87 = EDGE_LOOP ( 'NONE', ( #159, #50 ) ) ;
#88 = AXIS2_PLACEMENT_3D ( 'NONE', #253, #234, #235 ) ;
#89 = EDGE_CURVE ( 'NONE', #81, #15, #125, .T. ) ;
#90 = SECURITY_CLASSIFICATION ( '', '', #115 ) ;
#91 = CALENDAR_DATE ( 2023, 13, 2 ) ;
#92 =( NAMED_UNIT ( * ) PLANE_ANGLE_UNIT ( ) SI_UNIT ( $, .RADIAN. ) );
#93 = ORIENTED_EDGE ( 'NONE', *, *, #212, .T. ) ;
#94 = MECHANICAL_CONTEXT ( 'NONE', #136, 'mechanical' ) ;
#95 = EDGE_CURVE ( 'NONE', #213, #240, #188, .T. ) ;
#96 = DIRECTION ( 'NONE',  ( -1.000000000000000000, 0.000000000000000000, 0.000000000000000000 ) ) ;
#97 = DIRECTION ( 'NONE',  ( 1.000000000000000000, 0.000000000000000000, -0.000000000000000000 ) ) ;
#98 = CIRCLE ( 'NONE', #62, 6.000000000000000888 ) ;
#99 = ADVANCED_BREP_SHAPE_REPRESENTATION ( 'c6d2', ( #72, #203 ), #84 ) ;
#100 = DIRECTION ( 'NONE',  ( 1.000000000000000000, 0.000000000000000000, 0.000000000000000000 ) ) ;
#101 = ORIENTED_EDGE ( 'NONE', *, *, #212, .F. ) ;
#102 = LOCAL_TIME ( 15, 49, 31.00000000000000000, #246 ) ;
#103 = EDGE_LOOP ( 'NONE', ( #193, #189, #191, #58 ) ) ;
#104 = DIRECTION ( 'NONE',  ( 0.000000000000000000, 0.000000000000000000, 1.000000000000000000 ) ) ;
#105 = EDGE_CURVE ( 'NONE', #186, #240, #143, .T. ) ;
#106 = CLOSED_SHELL ( 'NONE', ( #185, #156, #241, #198, #63, #114, #19 ) ) ;
#107 = DIRECTION ( 'NONE',  ( -0.000000000000000000, -0.000000000000000000, -1.000000000000000000 ) ) ;
#108 = APPROVAL_PERSON_ORGANIZATION ( #173, #29, #35 ) ;
#109 = CARTESIAN_POINT ( 'NONE',  ( 6.000000000000000888, 7.347880794884120722E-16, 0.000000000000000000 ) ) ;
#110 = CARTESIAN_POINT ( 'NONE',  ( 0.000000000000000000, 0.000000000000000000, 0.000000000000000000 ) ) ;
#111 = PERSON_AND_ORGANIZATION ( #118, #32 ) ;
#112 = ORIENTED_EDGE ( 'NONE', *, *, #105, .T. ) ;
#113 = PERSON_AND_ORGANIZATION_ROLE ( 'creator' ) ;
#114 = ADVANCED_FACE ( 'NONE', ( #231 ), #133, .T. ) ;
#115 = SECURITY_CLASSIFICATION_LEVEL ( 'unclassified' ) ;
#116 = COORDINATED_UNIVERSAL_TIME_OFFSET ( 1, 0, .AHEAD. ) ;
#117 = LOCAL_TIME ( 15, 49, 31.00000000000000000, #155 ) ;
#118 = PERSON ( 'NEURÈENÝ', 'NEURÈENÝ', 'NEURÈENÝ', ('NEURÈENÝ'), ('NEURÈENÝ'), ('NEURÈENÝ') ) ;
#119 = DIRECTION ( 'NONE',  ( -1.000000000000000000, 0.000000000000000000, 0.000000000000000000 ) ) ;
#120 = DIRECTION ( 'NONE',  ( 0.000000000000000000, 0.000000000000000000, 1.000000000000000000 ) ) ;
#121 = AXIS2_PLACEMENT_3D ( 'NONE', #210, #247, #57 ) ;
#122 = DIRECTION ( 'NONE',  ( -0.000000000000000000, -0.000000000000000000, -1.000000000000000000 ) ) ;
#123 = CC_DESIGN_DATE_AND_TIME_ASSIGNMENT ( #172, #137, ( #90 ) ) ;
#124 = CARTESIAN_POINT ( 'NONE',  ( -6.000000000000000888, 0.000000000000000000, 0.000000000000000000 ) ) ;
#125 = LINE ( 'NONE', #25, #4 ) ;
#126 = APPROVAL_DATE_TIME ( #49, #202 ) ;
#127 = DATE_AND_TIME ( #153, #211 ) ;
#128 = ORIENTED_EDGE ( 'NONE', *, *, #161, .T. ) ;
#129 = DIRECTION ( 'NONE',  ( 0.000000000000000000, 0.000000000000000000, 1.000000000000000000 ) ) ;
#130 = CYLINDRICAL_SURFACE ( 'NONE', #160, 6.000000000000000888 ) ;
#131 = CARTESIAN_POINT ( 'NONE',  ( -6.000000000000000888, 0.000000000000000000, 5.000000000000000000 ) ) ;
#132 = FACE_BOUND ( 'NONE', #87, .T. ) ;
#133 = CYLINDRICAL_SURFACE ( 'NONE', #121, 3.750000000000000000 ) ;
#134 = EDGE_LOOP ( 'NONE', ( #31, #217, #93, #112 ) ) ;
#135 = LOCAL_TIME ( 15, 49, 31.00000000000000000, #116 ) ;
#136 = APPLICATION_CONTEXT ( 'configuration controlled 3d designs of mechanical parts and assemblies' ) ;
#137 = DATE_TIME_ROLE ( 'classification_date' ) ;
#138 = EDGE_CURVE ( 'NONE', #213, #45, #158, .T. ) ;
#139 = CARTESIAN_POINT ( 'NONE',  ( 0.000000000000000000, 0.000000000000000000, 250.0000000000000000 ) ) ;
#140 = CARTESIAN_POINT ( 'NONE',  ( 0.000000000000000000, 0.000000000000000000, 0.000000000000000000 ) ) ;
#141 = EDGE_CURVE ( 'NONE', #219, #15, #56, .T. ) ;
#142 = FACE_OUTER_BOUND ( 'NONE', #103, .T. ) ;
#143 = CIRCLE ( 'NONE', #22, 6.000000000000000888 ) ;
#144 = PRODUCT_DEFINITION_FORMATION_WITH_SPECIFIED_SOURCE ( 'LIBOVOLNÝ', '', #170, .NOT_KNOWN. ) ;
#145 = EDGE_CURVE ( 'NONE', #167, #219, #220, .T. ) ;
#146 = ORIENTED_EDGE ( 'NONE', *, *, #95, .T. ) ;
#147 = DESIGN_CONTEXT ( 'detailed design', #52, 'design' ) ;
#148 = CALENDAR_DATE ( 2023, 13, 2 ) ;
#149 = FACE_OUTER_BOUND ( 'NONE', #134, .T. ) ;
#150 = APPROVAL_ROLE ( '' ) ;
#151 = APPROVAL_STATUS ( 'not_yet_approved' ) ;
#152 =( NAMED_UNIT ( * ) SI_UNIT ( $, .STERADIAN. ) SOLID_ANGLE_UNIT ( ) );
#153 = CALENDAR_DATE ( 2023, 13, 2 ) ;
#154 = DIRECTION ( 'NONE',  ( 1.000000000000000000, 0.000000000000000000, 0.000000000000000000 ) ) ;
#155 = COORDINATED_UNIVERSAL_TIME_OFFSET ( 1, 0, .AHEAD. ) ;
#156 = ADVANCED_FACE ( 'NONE', ( #64 ), #44, .T. ) ;
#157 = APPROVAL_STATUS ( 'not_yet_approved' ) ;
#158 = CIRCLE ( 'NONE', #30, 6.000000000000000888 ) ;
#159 = ORIENTED_EDGE ( 'NONE', *, *, #227, .F. ) ;
#160 = AXIS2_PLACEMENT_3D ( 'NONE', #11, #224, #96 ) ;
#161 = EDGE_CURVE ( 'NONE', #167, #81, #244, .T. ) ;
#162 = DIRECTION ( 'NONE',  ( 1.000000000000000000, 0.000000000000000000, 0.000000000000000000 ) ) ;
#163 = AXIS2_PLACEMENT_3D ( 'NONE', #40, #120, #199 ) ;
#164 = CARTESIAN_POINT ( 'NONE',  ( 3.750000000000000000, 4.592425496802573972E-16, 250.0000000000000000 ) ) ;
#165 = DIRECTION ( 'NONE',  ( 1.000000000000000000, 0.000000000000000000, -0.000000000000000000 ) ) ;
#166 = COORDINATED_UNIVERSAL_TIME_OFFSET ( 1, 0, .AHEAD. ) ;
#167 = VERTEX_POINT ( 'NONE', #164 ) ;
#168 = DIRECTION ( 'NONE',  ( 0.000000000000000000, 0.000000000000000000, 1.000000000000000000 ) ) ;
#169 = CC_DESIGN_PERSON_AND_ORGANIZATION_ASSIGNMENT ( #171, #243, ( #170 ) ) ;
#170 = PRODUCT ( 'c6d2', 'c6d2', '', ( #94 ) ) ;
#171 = PERSON_AND_ORGANIZATION ( #118, #32 ) ;
#172 = DATE_AND_TIME ( #82, #135 ) ;
#173 = PERSON_AND_ORGANIZATION ( #118, #32 ) ;
#174 = AXIS2_PLACEMENT_3D ( 'NONE', #39, #168, #162 ) ;
#175 = EDGE_CURVE ( 'NONE', #45, #213, #12, .T. ) ;
#176 = AXIS2_PLACEMENT_3D ( 'NONE', #194, #129, #97 ) ;
#177 = CARTESIAN_POINT ( 'NONE',  ( 6.000000000000000888, 7.347880794884120722E-16, 5.000000000000000000 ) ) ;
#178 = CARTESIAN_POINT ( 'NONE',  ( 0.000000000000000000, 0.000000000000000000, 5.000000000000000000 ) ) ;
#179 = AXIS2_PLACEMENT_3D ( 'NONE', #139, #18, #54 ) ;
#180 = CC_DESIGN_PERSON_AND_ORGANIZATION_ASSIGNMENT ( #230, #232, ( #144 ) ) ;
#181 = VECTOR ( 'NONE', #3, 1000.000000000000000 ) ;
#182 = ORIENTED_EDGE ( 'NONE', *, *, #138, .F. ) ;
#183 = AXIS2_PLACEMENT_3D ( 'NONE', #216, #122, #201 ) ;
#184 = DIRECTION ( 'NONE',  ( 1.000000000000000000, 0.000000000000000000, 0.000000000000000000 ) ) ;
#185 = ADVANCED_FACE ( 'NONE', ( #142 ), #41, .T. ) ;
#186 = VERTEX_POINT ( 'NONE', #124 ) ;
#187 = CARTESIAN_POINT ( 'NONE',  ( 3.750000000000000000, 4.592425496802573972E-16, 5.000000000000000000 ) ) ;
#188 = LINE ( 'NONE', #177, #38 ) ;
#189 = ORIENTED_EDGE ( 'NONE', *, *, #145, .T. ) ;
#190 = PERSON_AND_ORGANIZATION_ROLE ( 'creator' ) ;
#191 = ORIENTED_EDGE ( 'NONE', *, *, #141, .T. ) ;
#192 = EDGE_CURVE ( 'NONE', #240, #186, #98, .T. ) ;
#193 = ORIENTED_EDGE ( 'NONE', *, *, #161, .F. ) ;
#194 = CARTESIAN_POINT ( 'NONE',  ( 0.000000000000000000, 0.000000000000000000, 5.000000000000000000 ) ) ;
#195 = SHAPE_DEFINITION_REPRESENTATION ( #205, #99 ) ;
#196 = CALENDAR_DATE ( 2023, 13, 2 ) ;
#197 = DIRECTION ( 'NONE',  ( 1.000000000000000000, 0.000000000000000000, 0.000000000000000000 ) ) ;
#198 = ADVANCED_FACE ( 'NONE', ( #132, #242 ), #208, .T. ) ;
#199 = DIRECTION ( 'NONE',  ( 1.000000000000000000, 0.000000000000000000, 0.000000000000000000 ) ) ;
#200 = APPROVAL_PERSON_ORGANIZATION ( #70, #202, #223 ) ;
#201 = DIRECTION ( 'NONE',  ( -1.000000000000000000, 0.000000000000000000, 0.000000000000000000 ) ) ;
#202 = APPROVAL ( #151, 'NEURÈENÝ' ) ;
#203 = AXIS2_PLACEMENT_3D ( 'NONE', #110, #51, #74 ) ;
#204 = APPROVAL_DATE_TIME ( #127, #13 ) ;
#205 = PRODUCT_DEFINITION_SHAPE ( 'NONE', 'NONE',  #26 ) ;
#206 = PERSON_AND_ORGANIZATION ( #118, #32 ) ;
#207 = CC_DESIGN_APPROVAL ( #13, ( #144 ) ) ;
#208 = PLANE ( 'NONE',  #176 ) ;
#209 = FACE_OUTER_BOUND ( 'NONE', #66, .T. ) ;
#210 = CARTESIAN_POINT ( 'NONE',  ( 0.000000000000000000, 0.000000000000000000, 250.0000000000000000 ) ) ;
#211 = LOCAL_TIME ( 15, 49, 31.00000000000000000, #166 ) ;
#212 = EDGE_CURVE ( 'NONE', #45, #186, #55, .T. ) ;
#213 = VERTEX_POINT ( 'NONE', #33 ) ;
#214 = CIRCLE ( 'NONE', #218, 3.750000000000000000 ) ;
#215 = DATE_TIME_ROLE ( 'creation_date' ) ;
#216 = CARTESIAN_POINT ( 'NONE',  ( 0.000000000000000000, 0.000000000000000000, 250.0000000000000000 ) ) ;
#217 = ORIENTED_EDGE ( 'NONE', *, *, #175, .F. ) ;
#218 = AXIS2_PLACEMENT_3D ( 'NONE', #251, #60, #197 ) ;
#219 = VERTEX_POINT ( 'NONE', #187 ) ;
#220 = LINE ( 'NONE', #67, #181 ) ;
#221 = LOCAL_TIME ( 15, 49, 31.00000000000000000, #8 ) ;
#222 = ORIENTED_EDGE ( 'NONE', *, *, #192, .F. ) ;
#223 = APPROVAL_ROLE ( '' ) ;
#224 = DIRECTION ( 'NONE',  ( -0.000000000000000000, -0.000000000000000000, -1.000000000000000000 ) ) ;
#225 = PERSON_AND_ORGANIZATION ( #118, #32 ) ;
#226 = DIRECTION ( 'NONE',  ( 1.000000000000000000, 0.000000000000000000, 0.000000000000000000 ) ) ;
#227 = EDGE_CURVE ( 'NONE', #15, #219, #79, .T. ) ;
#228 = AXIS2_PLACEMENT_3D ( 'NONE', #53, #6, #226 ) ;
#229 = CARTESIAN_POINT ( 'NONE',  ( -3.750000000000000000, 0.000000000000000000, 5.000000000000000000 ) ) ;
#230 = PERSON_AND_ORGANIZATION ( #118, #32 ) ;
#231 = FACE_OUTER_BOUND ( 'NONE', #239, .T. ) ;
#232 = PERSON_AND_ORGANIZATION_ROLE ( 'design_supplier' ) ;
#233 = DIRECTION ( 'NONE',  ( -0.000000000000000000, -0.000000000000000000, -1.000000000000000000 ) ) ;
#234 = DIRECTION ( 'NONE',  ( 0.000000000000000000, 0.000000000000000000, 1.000000000000000000 ) ) ;
#235 = DIRECTION ( 'NONE',  ( 1.000000000000000000, 0.000000000000000000, 0.000000000000000000 ) ) ;
#236 = VECTOR ( 'NONE', #75, 1000.000000000000000 ) ;
#237 = ORIENTED_EDGE ( 'NONE', *, *, #21, .T. ) ;
#238 =( LENGTH_UNIT ( ) NAMED_UNIT ( * ) SI_UNIT ( .MILLI., .METRE. ) );
#239 = EDGE_LOOP ( 'NONE', ( #1, #27, #10, #65 ) ) ;
#240 = VERTEX_POINT ( 'NONE', #109 ) ;
#241 = ADVANCED_FACE ( 'NONE', ( #149 ), #130, .T. ) ;
#242 = FACE_OUTER_BOUND ( 'NONE', #24, .T. ) ;
#243 = PERSON_AND_ORGANIZATION_ROLE ( 'design_owner' ) ;
#244 = CIRCLE ( 'NONE', #88, 3.750000000000000000 ) ;
#245 = CC_DESIGN_SECURITY_CLASSIFICATION ( #90, ( #144 ) ) ;
#246 = COORDINATED_UNIVERSAL_TIME_OFFSET ( 1, 0, .AHEAD. ) ;
#247 = DIRECTION ( 'NONE',  ( -0.000000000000000000, -0.000000000000000000, -1.000000000000000000 ) ) ;
#248 = EDGE_LOOP ( 'NONE', ( #182, #146, #250, #101 ) ) ;
#249 = PERSON_AND_ORGANIZATION ( #118, #32 ) ;
#250 = ORIENTED_EDGE ( 'NONE', *, *, #192, .T. ) ;
#251 = CARTESIAN_POINT ( 'NONE',  ( 0.000000000000000000, 0.000000000000000000, 250.0000000000000000 ) ) ;
#252 = PRODUCT_RELATED_PRODUCT_CATEGORY ( 'detail', '', ( #170 ) ) ;
#253 = CARTESIAN_POINT ( 'NONE',  ( 0.000000000000000000, 0.000000000000000000, 250.0000000000000000 ) ) ;
#254 = CARTESIAN_POINT ( 'NONE',  ( 0.000000000000000000, 0.000000000000000000, 5.000000000000000000 ) ) ;
#255 = PLANE ( 'NONE',  #68 ) ;
ENDSEC;
END-ISO-10303-21;
