ISO-10303-21;
HEADER;
FILE_DESCRIPTION (( 'STEP AP203' ),
    '1' );
FILE_NAME ('f914.STEP',
    '2022-07-07T17:22:32',
    ( '' ),
    ( '' ),
    'SwSTEP 2.0',
    'SolidWorks 2019',
    '' );
FILE_SCHEMA (( 'CONFIG_CONTROL_DESIGN' ));
ENDSEC;

DATA;
#1 = AXIS2_PLACEMENT_3D ( 'NONE', #230, #124, #127 ) ;
#2 = PLANE ( 'NONE',  #129 ) ;
#3 = VERTEX_POINT ( 'NONE', #61 ) ;
#4 = LOCAL_TIME ( 19, 22, 32.00000000000000000, #198 ) ;
#5 = DIRECTION ( 'NONE',  ( 1.000000000000000000, 0.000000000000000000, -0.000000000000000000 ) ) ;
#6 = CARTESIAN_POINT ( 'NONE',  ( 5.500000000000000000, 6.735557395310442023E-16, 5.000000000000000000 ) ) ;
#7 = ADVANCED_FACE ( 'NONE', ( #10 ), #193, .T. ) ;
#8 = CYLINDRICAL_SURFACE ( 'NONE', #154, 5.500000000000000000 ) ;
#9 = CC_DESIGN_DATE_AND_TIME_ASSIGNMENT ( #237, #251, ( #232 ) ) ;
#10 = FACE_OUTER_BOUND ( 'NONE', #68, .T. ) ;
#11 = ORIENTED_EDGE ( 'NONE', *, *, #183, .F. ) ;
#12 = PERSON_AND_ORGANIZATION ( #107, #112 ) ;
#13 = DATE_AND_TIME ( #117, #53 ) ;
#14 = PERSON_AND_ORGANIZATION ( #107, #112 ) ;
#15 = DATE_TIME_ROLE ( 'classification_date' ) ;
#16 = ORIENTED_EDGE ( 'NONE', *, *, #114, .T. ) ;
#17 = ADVANCED_FACE ( 'NONE', ( #226 ), #48, .F. ) ;
#18 = EDGE_LOOP ( 'NONE', ( #11, #158 ) ) ;
#19 = VERTEX_POINT ( 'NONE', #242 ) ;
#20 = CARTESIAN_POINT ( 'NONE',  ( 0.000000000000000000, 0.000000000000000000, 5.000000000000000000 ) ) ;
#21 = EDGE_LOOP ( 'NONE', ( #239, #248, #207, #208 ) ) ;
#22 = CARTESIAN_POINT ( 'NONE',  ( 0.000000000000000000, 0.000000000000000000, 0.000000000000000000 ) ) ;
#23 = DIRECTION ( 'NONE',  ( 1.000000000000000000, 0.000000000000000000, 0.000000000000000000 ) ) ;
#24 = FACE_OUTER_BOUND ( 'NONE', #79, .T. ) ;
#25 = CARTESIAN_POINT ( 'NONE',  ( 8.000000000000000000, 9.797174393178825657E-16, 5.000000000000000000 ) ) ;
#26 = EDGE_CURVE ( 'NONE', #57, #75, #255, .T. ) ;
#27 = CIRCLE ( 'NONE', #190, 8.000000000000000000 ) ;
#28 = VERTEX_POINT ( 'NONE', #205 ) ;
#29 = CYLINDRICAL_SURFACE ( 'NONE', #221, 8.000000000000000000 ) ;
#30 = COORDINATED_UNIVERSAL_TIME_OFFSET ( 1, 0, .AHEAD. ) ;
#31 = DIRECTION ( 'NONE',  ( 0.000000000000000000, 0.000000000000000000, 1.000000000000000000 ) ) ;
#32 = AXIS2_PLACEMENT_3D ( 'NONE', #194, #233, #85 ) ;
#33 = EDGE_CURVE ( 'NONE', #103, #19, #27, .T. ) ;
#34 = CALENDAR_DATE ( 2022, 7, 7 ) ;
#35 = APPROVAL_ROLE ( '' ) ;
#36 = AXIS2_PLACEMENT_3D ( 'NONE', #147, #243, #126 ) ;
#37 = SECURITY_CLASSIFICATION ( '', '', #238 ) ;
#38 = EDGE_CURVE ( 'NONE', #75, #57, #65, .T. ) ;
#39 = DIRECTION ( 'NONE',  ( -0.000000000000000000, -0.000000000000000000, -1.000000000000000000 ) ) ;
#40 = DIRECTION ( 'NONE',  ( 0.000000000000000000, 0.000000000000000000, 1.000000000000000000 ) ) ;
#41 = CARTESIAN_POINT ( 'NONE',  ( 0.000000000000000000, 0.000000000000000000, 0.000000000000000000 ) ) ;
#42 = DIRECTION ( 'NONE',  ( 1.000000000000000000, 0.000000000000000000, 0.000000000000000000 ) ) ;
#43 = AXIS2_PLACEMENT_3D ( 'NONE', #240, #40, #131 ) ;
#44 = DIRECTION ( 'NONE',  ( 1.000000000000000000, 0.000000000000000000, 0.000000000000000000 ) ) ;
#45 = APPROVAL ( #250, 'NEURÈENÝ' ) ;
#46 = ORIENTED_EDGE ( 'NONE', *, *, #76, .T. ) ;
#47 = ORIENTED_EDGE ( 'NONE', *, *, #236, .F. ) ;
#48 = PLANE ( 'NONE',  #55 ) ;
#49 = PERSON_AND_ORGANIZATION_ROLE ( 'design_owner' ) ;
#50 = CARTESIAN_POINT ( 'NONE',  ( 5.500000000000000000, 6.735557395310442023E-16, 255.0000000000000000 ) ) ;
#51 = EDGE_CURVE ( 'NONE', #19, #103, #186, .T. ) ;
#52 = COORDINATED_UNIVERSAL_TIME_OFFSET ( 1, 0, .AHEAD. ) ;
#53 = LOCAL_TIME ( 19, 22, 32.00000000000000000, #119 ) ;
#54 = ADVANCED_FACE ( 'NONE', ( #155 ), #29, .T. ) ;
#55 = AXIS2_PLACEMENT_3D ( 'NONE', #84, #90, #5 ) ;
#56 = CC_DESIGN_DATE_AND_TIME_ASSIGNMENT ( #217, #15, ( #37 ) ) ;
#57 = VERTEX_POINT ( 'NONE', #69 ) ;
#58 = ORIENTED_EDGE ( 'NONE', *, *, #33, .T. ) ;
#59 = CC_DESIGN_SECURITY_CLASSIFICATION ( #37, ( #229 ) ) ;
#60 = DIRECTION ( 'NONE',  ( 1.000000000000000000, 0.000000000000000000, -0.000000000000000000 ) ) ;
#61 = CARTESIAN_POINT ( 'NONE',  ( -5.500000000000000000, 0.000000000000000000, 255.0000000000000000 ) ) ;
#62 = APPLICATION_PROTOCOL_DEFINITION ( 'international standard', 'config_control_design', 1994, #99 ) ;
#63 = DIRECTION ( 'NONE',  ( -0.000000000000000000, -0.000000000000000000, -1.000000000000000000 ) ) ;
#64 = CARTESIAN_POINT ( 'NONE',  ( 0.000000000000000000, 0.000000000000000000, 255.0000000000000000 ) ) ;
#65 = CIRCLE ( 'NONE', #172, 8.000000000000000000 ) ;
#66 = CC_DESIGN_PERSON_AND_ORGANIZATION_ASSIGNMENT ( #116, #95, ( #229 ) ) ;
#67 =( LENGTH_UNIT ( ) NAMED_UNIT ( * ) SI_UNIT ( .MILLI., .METRE. ) );
#68 = EDGE_LOOP ( 'NONE', ( #16, #46 ) ) ;
#69 = CARTESIAN_POINT ( 'NONE',  ( -8.000000000000000000, 0.000000000000000000, 5.000000000000000000 ) ) ;
#70 = APPROVAL_PERSON_ORGANIZATION ( #77, #45, #174 ) ;
#71 = DIRECTION ( 'NONE',  ( 0.000000000000000000, 0.000000000000000000, 1.000000000000000000 ) ) ;
#72 = SHAPE_DEFINITION_REPRESENTATION ( #201, #73 ) ;
#73 = ADVANCED_BREP_SHAPE_REPRESENTATION ( 'f914', ( #141, #94 ), #122 ) ;
#74 = PERSON_AND_ORGANIZATION ( #107, #112 ) ;
#75 = VERTEX_POINT ( 'NONE', #153 ) ;
#76 = EDGE_CURVE ( 'NONE', #28, #3, #110, .T. ) ;
#77 = PERSON_AND_ORGANIZATION ( #107, #112 ) ;
#78 = PRODUCT ( 'f914', 'f914', '', ( #228 ) ) ;
#79 = EDGE_LOOP ( 'NONE', ( #161, #253, #113, #109 ) ) ;
#80 = EDGE_CURVE ( 'NONE', #28, #162, #166, .T. ) ;
#81 = ORIENTED_EDGE ( 'NONE', *, *, #51, .F. ) ;
#82 = UNCERTAINTY_MEASURE_WITH_UNIT (LENGTH_MEASURE( 1.000000000000000082E-05 ), #67, 'distance_accuracy_value', 'NONE');
#83 = ORIENTED_EDGE ( 'NONE', *, *, #222, .T. ) ;
#84 = CARTESIAN_POINT ( 'NONE',  ( 0.000000000000000000, 0.000000000000000000, 0.000000000000000000 ) ) ;
#85 = DIRECTION ( 'NONE',  ( 1.000000000000000000, 0.000000000000000000, 0.000000000000000000 ) ) ;
#86 = APPLICATION_CONTEXT ( 'configuration controlled 3d designs of mechanical parts and assemblies' ) ;
#87 = DIRECTION ( 'NONE',  ( -0.000000000000000000, -0.000000000000000000, -1.000000000000000000 ) ) ;
#88 = CC_DESIGN_APPROVAL ( #178, ( #232 ) ) ;
#89 = ORIENTED_EDGE ( 'NONE', *, *, #80, .T. ) ;
#90 = DIRECTION ( 'NONE',  ( 0.000000000000000000, 0.000000000000000000, 1.000000000000000000 ) ) ;
#91 = PRODUCT_RELATED_PRODUCT_CATEGORY ( 'detail', '', ( #78 ) ) ;
#92 = CARTESIAN_POINT ( 'NONE',  ( 0.000000000000000000, 0.000000000000000000, 255.0000000000000000 ) ) ;
#93 = COORDINATED_UNIVERSAL_TIME_OFFSET ( 1, 0, .AHEAD. ) ;
#94 = AXIS2_PLACEMENT_3D ( 'NONE', #244, #150, #23 ) ;
#95 = PERSON_AND_ORGANIZATION_ROLE ( 'creator' ) ;
#96 = EDGE_CURVE ( 'NONE', #162, #247, #218, .T. ) ;
#97 = PERSON_AND_ORGANIZATION_ROLE ( 'creator' ) ;
#98 = ADVANCED_FACE ( 'NONE', ( #130 ), #216, .T. ) ;
#99 = APPLICATION_CONTEXT ( 'configuration controlled 3d designs of mechanical parts and assemblies' ) ;
#100 = DIRECTION ( 'NONE',  ( -0.000000000000000000, -0.000000000000000000, -1.000000000000000000 ) ) ;
#101 = EDGE_LOOP ( 'NONE', ( #204, #89, #144, #47 ) ) ;
#102 = DIRECTION ( 'NONE',  ( -1.000000000000000000, 0.000000000000000000, 0.000000000000000000 ) ) ;
#103 = VERTEX_POINT ( 'NONE', #212 ) ;
#104 = CARTESIAN_POINT ( 'NONE',  ( 0.000000000000000000, 0.000000000000000000, 5.000000000000000000 ) ) ;
#105 = CARTESIAN_POINT ( 'NONE',  ( -5.500000000000000000, 0.000000000000000000, 255.0000000000000000 ) ) ;
#106 = CARTESIAN_POINT ( 'NONE',  ( -8.000000000000000000, 0.000000000000000000, 5.000000000000000000 ) ) ;
#107 = PERSON ( 'NEURÈENÝ', 'NEURÈENÝ', 'NEURÈENÝ', ('NEURÈENÝ'), ('NEURÈENÝ'), ('NEURÈENÝ') ) ;
#108 = DIRECTION ( 'NONE',  ( -0.000000000000000000, -0.000000000000000000, -1.000000000000000000 ) ) ;
#109 = ORIENTED_EDGE ( 'NONE', *, *, #222, .F. ) ;
#110 = CIRCLE ( 'NONE', #32, 5.500000000000000000 ) ;
#111 = AXIS2_PLACEMENT_3D ( 'NONE', #123, #39, #102 ) ;
#112 = ORGANIZATION ( 'NEURÈENÝ', 'NEURÈENÝ', '' ) ;
#113 = ORIENTED_EDGE ( 'NONE', *, *, #51, .T. ) ;
#114 = EDGE_CURVE ( 'NONE', #3, #28, #202, .T. ) ;
#115 = DIRECTION ( 'NONE',  ( -0.000000000000000000, -0.000000000000000000, -1.000000000000000000 ) ) ;
#116 = PERSON_AND_ORGANIZATION ( #107, #112 ) ;
#117 = CALENDAR_DATE ( 2022, 7, 7 ) ;
#118 = CC_DESIGN_APPROVAL ( #45, ( #229 ) ) ;
#119 = COORDINATED_UNIVERSAL_TIME_OFFSET ( 1, 0, .AHEAD. ) ;
#120 = APPROVAL_STATUS ( 'not_yet_approved' ) ;
#121 = APPROVAL_PERSON_ORGANIZATION ( #74, #136, #138 ) ;
#122 =( GEOMETRIC_REPRESENTATION_CONTEXT ( 3 ) GLOBAL_UNCERTAINTY_ASSIGNED_CONTEXT ( ( #82 ) ) GLOBAL_UNIT_ASSIGNED_CONTEXT ( ( #67, #182, #185 ) ) REPRESENTATION_CONTEXT ( 'NONE', 'WORKASPACE' ) );
#123 = CARTESIAN_POINT ( 'NONE',  ( 0.000000000000000000, 0.000000000000000000, 255.0000000000000000 ) ) ;
#124 = DIRECTION ( 'NONE',  ( -0.000000000000000000, -0.000000000000000000, -1.000000000000000000 ) ) ;
#125 = EDGE_LOOP ( 'NONE', ( #149, #146, #83, #58 ) ) ;
#126 = DIRECTION ( 'NONE',  ( 1.000000000000000000, 0.000000000000000000, 0.000000000000000000 ) ) ;
#127 = DIRECTION ( 'NONE',  ( -1.000000000000000000, 0.000000000000000000, 0.000000000000000000 ) ) ;
#128 = ADVANCED_FACE ( 'NONE', ( #224 ), #8, .T. ) ;
#129 = AXIS2_PLACEMENT_3D ( 'NONE', #188, #167, #60 ) ;
#130 = FACE_OUTER_BOUND ( 'NONE', #101, .T. ) ;
#131 = DIRECTION ( 'NONE',  ( 1.000000000000000000, 0.000000000000000000, 0.000000000000000000 ) ) ;
#132 = DIRECTION ( 'NONE',  ( 0.000000000000000000, 0.000000000000000000, 1.000000000000000000 ) ) ;
#133 = DIRECTION ( 'NONE',  ( 0.000000000000000000, 0.000000000000000000, 1.000000000000000000 ) ) ;
#134 = PERSON_AND_ORGANIZATION ( #107, #112 ) ;
#135 = CARTESIAN_POINT ( 'NONE',  ( 0.000000000000000000, 0.000000000000000000, 5.000000000000000000 ) ) ;
#136 = APPROVAL ( #249, 'NEURÈENÝ' ) ;
#137 = CALENDAR_DATE ( 2022, 7, 7 ) ;
#138 = APPROVAL_ROLE ( '' ) ;
#139 = LOCAL_TIME ( 19, 22, 32.00000000000000000, #93 ) ;
#140 = APPROVAL_DATE_TIME ( #199, #178 ) ;
#141 = MANIFOLD_SOLID_BREP ( 'Pøidat vysunutím3', #151 ) ;
#142 = CC_DESIGN_PERSON_AND_ORGANIZATION_ASSIGNMENT ( #14, #159, ( #229 ) ) ;
#143 = CIRCLE ( 'NONE', #43, 5.500000000000000000 ) ;
#144 = ORIENTED_EDGE ( 'NONE', *, *, #96, .T. ) ;
#145 = CARTESIAN_POINT ( 'NONE',  ( 0.000000000000000000, 0.000000000000000000, 255.0000000000000000 ) ) ;
#146 = ORIENTED_EDGE ( 'NONE', *, *, #26, .F. ) ;
#147 = CARTESIAN_POINT ( 'NONE',  ( 0.000000000000000000, 0.000000000000000000, 5.000000000000000000 ) ) ;
#148 = ADVANCED_FACE ( 'NONE', ( #24 ), #152, .T. ) ;
#149 = ORIENTED_EDGE ( 'NONE', *, *, #175, .F. ) ;
#150 = DIRECTION ( 'NONE',  ( 0.000000000000000000, 0.000000000000000000, 1.000000000000000000 ) ) ;
#151 = CLOSED_SHELL ( 'NONE', ( #98, #148, #54, #203, #17, #128, #7 ) ) ;
#152 = CYLINDRICAL_SURFACE ( 'NONE', #1, 8.000000000000000000 ) ;
#153 = CARTESIAN_POINT ( 'NONE',  ( 8.000000000000000000, 9.797174393178825657E-16, 5.000000000000000000 ) ) ;
#154 = AXIS2_PLACEMENT_3D ( 'NONE', #64, #87, #165 ) ;
#155 = FACE_OUTER_BOUND ( 'NONE', #125, .T. ) ;
#156 = APPROVAL_DATE_TIME ( #13, #45 ) ;
#157 = CC_DESIGN_PERSON_AND_ORGANIZATION_ASSIGNMENT ( #12, #235, ( #37 ) ) ;
#158 = ORIENTED_EDGE ( 'NONE', *, *, #96, .F. ) ;
#159 = PERSON_AND_ORGANIZATION_ROLE ( 'design_supplier' ) ;
#160 = CC_DESIGN_PERSON_AND_ORGANIZATION_ASSIGNMENT ( #215, #97, ( #232 ) ) ;
#161 = ORIENTED_EDGE ( 'NONE', *, *, #38, .F. ) ;
#162 = VERTEX_POINT ( 'NONE', #6 ) ;
#163 = FACE_OUTER_BOUND ( 'NONE', #225, .T. ) ;
#164 = DIRECTION ( 'NONE',  ( 1.000000000000000000, 0.000000000000000000, 0.000000000000000000 ) ) ;
#165 = DIRECTION ( 'NONE',  ( -1.000000000000000000, 0.000000000000000000, 0.000000000000000000 ) ) ;
#166 = LINE ( 'NONE', #50, #180 ) ;
#167 = DIRECTION ( 'NONE',  ( 0.000000000000000000, 0.000000000000000000, 1.000000000000000000 ) ) ;
#168 = DIRECTION ( 'NONE',  ( -0.000000000000000000, -0.000000000000000000, -1.000000000000000000 ) ) ;
#169 = AXIS2_PLACEMENT_3D ( 'NONE', #135, #133, #42 ) ;
#170 = LOCAL_TIME ( 19, 22, 32.00000000000000000, #30 ) ;
#171 = DIRECTION ( 'NONE',  ( 0.000000000000000000, 0.000000000000000000, 1.000000000000000000 ) ) ;
#172 = AXIS2_PLACEMENT_3D ( 'NONE', #20, #171, #184 ) ;
#173 = DIRECTION ( 'NONE',  ( 0.000000000000000000, 0.000000000000000000, 1.000000000000000000 ) ) ;
#174 = APPROVAL_ROLE ( '' ) ;
#175 = EDGE_CURVE ( 'NONE', #75, #19, #209, .T. ) ;
#176 = APPROVAL_DATE_TIME ( #197, #136 ) ;
#177 = APPLICATION_PROTOCOL_DEFINITION ( 'international standard', 'config_control_design', 1994, #86 ) ;
#178 = APPROVAL ( #120, 'NEURÈENÝ' ) ;
#179 = LOCAL_TIME ( 19, 22, 32.00000000000000000, #52 ) ;
#180 = VECTOR ( 'NONE', #63, 1000.000000000000000 ) ;
#181 = CC_DESIGN_APPROVAL ( #136, ( #37 ) ) ;
#182 =( NAMED_UNIT ( * ) PLANE_ANGLE_UNIT ( ) SI_UNIT ( $, .RADIAN. ) );
#183 = EDGE_CURVE ( 'NONE', #247, #162, #143, .T. ) ;
#184 = DIRECTION ( 'NONE',  ( 1.000000000000000000, 0.000000000000000000, 0.000000000000000000 ) ) ;
#185 =( NAMED_UNIT ( * ) SI_UNIT ( $, .STERADIAN. ) SOLID_ANGLE_UNIT ( ) );
#186 = CIRCLE ( 'NONE', #211, 8.000000000000000000 ) ;
#187 = DIRECTION ( 'NONE',  ( -1.000000000000000000, 0.000000000000000000, 0.000000000000000000 ) ) ;
#188 = CARTESIAN_POINT ( 'NONE',  ( 0.000000000000000000, 0.000000000000000000, 5.000000000000000000 ) ) ;
#189 = LINE ( 'NONE', #105, #246 ) ;
#190 = AXIS2_PLACEMENT_3D ( 'NONE', #41, #71, #164 ) ;
#191 = ORIENTED_EDGE ( 'NONE', *, *, #26, .T. ) ;
#192 = EDGE_LOOP ( 'NONE', ( #234, #81 ) ) ;
#193 = PLANE ( 'NONE',  #231 ) ;
#194 = CARTESIAN_POINT ( 'NONE',  ( 0.000000000000000000, 0.000000000000000000, 255.0000000000000000 ) ) ;
#195 = CALENDAR_DATE ( 2022, 7, 7 ) ;
#196 = VECTOR ( 'NONE', #108, 1000.000000000000000 ) ;
#197 = DATE_AND_TIME ( #34, #139 ) ;
#198 = COORDINATED_UNIVERSAL_TIME_OFFSET ( 1, 0, .AHEAD. ) ;
#199 = DATE_AND_TIME ( #195, #4 ) ;
#200 = CC_DESIGN_PERSON_AND_ORGANIZATION_ASSIGNMENT ( #220, #49, ( #78 ) ) ;
#201 = PRODUCT_DEFINITION_SHAPE ( 'NONE', 'NONE',  #232 ) ;
#202 = CIRCLE ( 'NONE', #252, 5.500000000000000000 ) ;
#203 = ADVANCED_FACE ( 'NONE', ( #210, #163 ), #2, .T. ) ;
#204 = ORIENTED_EDGE ( 'NONE', *, *, #76, .F. ) ;
#205 = CARTESIAN_POINT ( 'NONE',  ( 5.500000000000000000, 6.735557395310442023E-16, 255.0000000000000000 ) ) ;
#206 = CARTESIAN_POINT ( 'NONE',  ( -5.500000000000000000, 0.000000000000000000, 5.000000000000000000 ) ) ;
#207 = ORIENTED_EDGE ( 'NONE', *, *, #236, .T. ) ;
#208 = ORIENTED_EDGE ( 'NONE', *, *, #183, .T. ) ;
#209 = LINE ( 'NONE', #25, #196 ) ;
#210 = FACE_BOUND ( 'NONE', #18, .T. ) ;
#211 = AXIS2_PLACEMENT_3D ( 'NONE', #22, #31, #227 ) ;
#212 = CARTESIAN_POINT ( 'NONE',  ( -8.000000000000000000, 0.000000000000000000, 0.000000000000000000 ) ) ;
#213 = VECTOR ( 'NONE', #100, 1000.000000000000000 ) ;
#214 = DIRECTION ( 'NONE',  ( 1.000000000000000000, 0.000000000000000000, -0.000000000000000000 ) ) ;
#215 = PERSON_AND_ORGANIZATION ( #107, #112 ) ;
#216 = CYLINDRICAL_SURFACE ( 'NONE', #111, 5.500000000000000000 ) ;
#217 = DATE_AND_TIME ( #137, #179 ) ;
#218 = CIRCLE ( 'NONE', #169, 5.500000000000000000 ) ;
#219 = CALENDAR_DATE ( 2022, 7, 7 ) ;
#220 = PERSON_AND_ORGANIZATION ( #107, #112 ) ;
#221 = AXIS2_PLACEMENT_3D ( 'NONE', #104, #115, #187 ) ;
#222 = EDGE_CURVE ( 'NONE', #57, #103, #245, .T. ) ;
#223 = ORIENTED_EDGE ( 'NONE', *, *, #38, .T. ) ;
#224 = FACE_OUTER_BOUND ( 'NONE', #21, .T. ) ;
#225 = EDGE_LOOP ( 'NONE', ( #191, #223 ) ) ;
#226 = FACE_OUTER_BOUND ( 'NONE', #192, .T. ) ;
#227 = DIRECTION ( 'NONE',  ( 1.000000000000000000, 0.000000000000000000, 0.000000000000000000 ) ) ;
#228 = MECHANICAL_CONTEXT ( 'NONE', #99, 'mechanical' ) ;
#229 = PRODUCT_DEFINITION_FORMATION_WITH_SPECIFIED_SOURCE ( 'LIBOVOLNÝ', '', #78, .NOT_KNOWN. ) ;
#230 = CARTESIAN_POINT ( 'NONE',  ( 0.000000000000000000, 0.000000000000000000, 5.000000000000000000 ) ) ;
#231 = AXIS2_PLACEMENT_3D ( 'NONE', #92, #173, #214 ) ;
#232 = PRODUCT_DEFINITION ( 'NEZNÁMÝ', '', #229, #254 ) ;
#233 = DIRECTION ( 'NONE',  ( 0.000000000000000000, 0.000000000000000000, 1.000000000000000000 ) ) ;
#234 = ORIENTED_EDGE ( 'NONE', *, *, #33, .F. ) ;
#235 = PERSON_AND_ORGANIZATION_ROLE ( 'classification_officer' ) ;
#236 = EDGE_CURVE ( 'NONE', #3, #247, #189, .T. ) ;
#237 = DATE_AND_TIME ( #219, #170 ) ;
#238 = SECURITY_CLASSIFICATION_LEVEL ( 'unclassified' ) ;
#239 = ORIENTED_EDGE ( 'NONE', *, *, #80, .F. ) ;
#240 = CARTESIAN_POINT ( 'NONE',  ( 0.000000000000000000, 0.000000000000000000, 5.000000000000000000 ) ) ;
#241 = APPROVAL_PERSON_ORGANIZATION ( #134, #178, #35 ) ;
#242 = CARTESIAN_POINT ( 'NONE',  ( 8.000000000000000000, 9.797174393178825657E-16, 0.000000000000000000 ) ) ;
#243 = DIRECTION ( 'NONE',  ( 0.000000000000000000, 0.000000000000000000, 1.000000000000000000 ) ) ;
#244 = CARTESIAN_POINT ( 'NONE',  ( 0.000000000000000000, 0.000000000000000000, 0.000000000000000000 ) ) ;
#245 = LINE ( 'NONE', #106, #213 ) ;
#246 = VECTOR ( 'NONE', #168, 1000.000000000000000 ) ;
#247 = VERTEX_POINT ( 'NONE', #206 ) ;
#248 = ORIENTED_EDGE ( 'NONE', *, *, #114, .F. ) ;
#249 = APPROVAL_STATUS ( 'not_yet_approved' ) ;
#250 = APPROVAL_STATUS ( 'not_yet_approved' ) ;
#251 = DATE_TIME_ROLE ( 'creation_date' ) ;
#252 = AXIS2_PLACEMENT_3D ( 'NONE', #145, #132, #44 ) ;
#253 = ORIENTED_EDGE ( 'NONE', *, *, #175, .T. ) ;
#254 = DESIGN_CONTEXT ( 'detailed design', #86, 'design' ) ;
#255 = CIRCLE ( 'NONE', #36, 8.000000000000000000 ) ;
ENDSEC;
END-ISO-10303-21;
