ISO-10303-21;
HEADER;
FILE_DESCRIPTION (( 'STEP AP203' ),
    '1' );
FILE_NAME ('e4f4.STEP',
    '2022-07-07T17:54:05',
    ( '' ),
    ( '' ),
    'SwSTEP 2.0',
    'SolidWorks 2019',
    '' );
FILE_SCHEMA (( 'CONFIG_CONTROL_DESIGN' ));
ENDSEC;

DATA;
#1 = EDGE_CURVE ( 'NONE', #173, #185, #233, .T. ) ;
#2 = PERSON_AND_ORGANIZATION ( #235, #47 ) ;
#3 = DIRECTION ( 'NONE',  ( -0.000000000000000000, -0.000000000000000000, -1.000000000000000000 ) ) ;
#4 = VERTEX_POINT ( 'NONE', #120 ) ;
#5 = ADVANCED_FACE ( 'NONE', ( #138 ), #136, .T. ) ;
#6 = DIRECTION ( 'NONE',  ( 1.000000000000000000, 0.000000000000000000, 0.000000000000000000 ) ) ;
#7 = DATE_AND_TIME ( #145, #161 ) ;
#8 = CARTESIAN_POINT ( 'NONE',  ( 3.500000000000000000, 4.286263797015736595E-16, 3.000000000000000000 ) ) ;
#9 = PERSON_AND_ORGANIZATION_ROLE ( 'creator' ) ;
#10 = CARTESIAN_POINT ( 'NONE',  ( 0.000000000000000000, 0.000000000000000000, 0.000000000000000000 ) ) ;
#11 = CARTESIAN_POINT ( 'NONE',  ( 0.000000000000000000, 0.000000000000000000, 103.0000000000000142 ) ) ;
#12 = FACE_OUTER_BOUND ( 'NONE', #177, .T. ) ;
#13 = PLANE ( 'NONE',  #146 ) ;
#14 = AXIS2_PLACEMENT_3D ( 'NONE', #244, #46, #169 ) ;
#15 = DIRECTION ( 'NONE',  ( 1.000000000000000000, 0.000000000000000000, -0.000000000000000000 ) ) ;
#16 = AXIS2_PLACEMENT_3D ( 'NONE', #204, #211, #92 ) ;
#17 = EDGE_CURVE ( 'NONE', #173, #150, #151, .T. ) ;
#18 = DIRECTION ( 'NONE',  ( 0.000000000000000000, 0.000000000000000000, 1.000000000000000000 ) ) ;
#19 = CARTESIAN_POINT ( 'NONE',  ( 0.000000000000000000, 0.000000000000000000, 0.000000000000000000 ) ) ;
#20 = DATE_AND_TIME ( #33, #219 ) ;
#21 = APPROVAL_ROLE ( '' ) ;
#22 = CARTESIAN_POINT ( 'NONE',  ( -3.500000000000000000, 0.000000000000000000, 0.000000000000000000 ) ) ;
#23 = PERSON_AND_ORGANIZATION_ROLE ( 'design_supplier' ) ;
#24 = DIRECTION ( 'NONE',  ( 0.000000000000000000, 0.000000000000000000, 1.000000000000000000 ) ) ;
#25 = LINE ( 'NONE', #181, #188 ) ;
#26 = APPROVAL ( #242, 'NEURÈENÝ' ) ;
#27 = ORIENTED_EDGE ( 'NONE', *, *, #55, .T. ) ;
#28 = ORIENTED_EDGE ( 'NONE', *, *, #149, .T. ) ;
#29 = CARTESIAN_POINT ( 'NONE',  ( 1.750000000000000000, 2.143131898507868297E-16, 103.0000000000000142 ) ) ;
#30 = LINE ( 'NONE', #139, #192 ) ;
#31 = ADVANCED_FACE ( 'NONE', ( #80 ), #54, .T. ) ;
#32 = CALENDAR_DATE ( 2022, 7, 7 ) ;
#33 = CALENDAR_DATE ( 2022, 7, 7 ) ;
#34 = APPROVAL_DATE_TIME ( #129, #254 ) ;
#35 = EDGE_LOOP ( 'NONE', ( #28, #230 ) ) ;
#36 = DIRECTION ( 'NONE',  ( 1.000000000000000000, 0.000000000000000000, 0.000000000000000000 ) ) ;
#37 = MECHANICAL_CONTEXT ( 'NONE', #86, 'mechanical' ) ;
#38 = APPROVAL_PERSON_ORGANIZATION ( #221, #254, #240 ) ;
#39 = SHAPE_DEFINITION_REPRESENTATION ( #69, #76 ) ;
#40 = ADVANCED_FACE ( 'NONE', ( #231 ), #13, .T. ) ;
#41 = CARTESIAN_POINT ( 'NONE',  ( 0.000000000000000000, 0.000000000000000000, 3.000000000000000000 ) ) ;
#42 = ADVANCED_FACE ( 'NONE', ( #12 ), #53, .T. ) ;
#43 = PERSON_AND_ORGANIZATION_ROLE ( 'creator' ) ;
#44 = DIRECTION ( 'NONE',  ( 0.000000000000000000, 0.000000000000000000, 1.000000000000000000 ) ) ;
#45 = DATE_AND_TIME ( #72, #84 ) ;
#46 = DIRECTION ( 'NONE',  ( 0.000000000000000000, 0.000000000000000000, 1.000000000000000000 ) ) ;
#47 = ORGANIZATION ( 'NEURÈENÝ', 'NEURÈENÝ', '' ) ;
#48 = ORIENTED_EDGE ( 'NONE', *, *, #55, .F. ) ;
#49 = CARTESIAN_POINT ( 'NONE',  ( 0.000000000000000000, 0.000000000000000000, 3.000000000000000000 ) ) ;
#50 = ORIENTED_EDGE ( 'NONE', *, *, #1, .F. ) ;
#51 = CIRCLE ( 'NONE', #99, 1.750000000000000000 ) ;
#52 = VERTEX_POINT ( 'NONE', #232 ) ;
#53 = CYLINDRICAL_SURFACE ( 'NONE', #81, 3.500000000000000000 ) ;
#54 = CYLINDRICAL_SURFACE ( 'NONE', #183, 3.500000000000000000 ) ;
#55 = EDGE_CURVE ( 'NONE', #150, #252, #30, .T. ) ;
#56 = APPLICATION_CONTEXT ( 'configuration controlled 3d designs of mechanical parts and assemblies' ) ;
#57 = AXIS2_PLACEMENT_3D ( 'NONE', #241, #71, #228 ) ;
#58 = PRODUCT_RELATED_PRODUCT_CATEGORY ( 'detail', '', ( #124 ) ) ;
#59 = CC_DESIGN_PERSON_AND_ORGANIZATION_ASSIGNMENT ( #93, #170, ( #133 ) ) ;
#60 = APPROVAL_DATE_TIME ( #20, #165 ) ;
#61 = SECURITY_CLASSIFICATION_LEVEL ( 'unclassified' ) ;
#62 = CIRCLE ( 'NONE', #107, 3.500000000000000000 ) ;
#63 = APPLICATION_PROTOCOL_DEFINITION ( 'international standard', 'config_control_design', 1994, #56 ) ;
#64 = ORIENTED_EDGE ( 'NONE', *, *, #82, .F. ) ;
#65 = PRODUCT_DEFINITION ( 'NEZNÁMÝ', '', #200, #172 ) ;
#66 = UNCERTAINTY_MEASURE_WITH_UNIT (LENGTH_MEASURE( 1.000000000000000082E-05 ), #111, 'distance_accuracy_value', 'NONE');
#67 = DIRECTION ( 'NONE',  ( 0.000000000000000000, 0.000000000000000000, 1.000000000000000000 ) ) ;
#68 = PERSON_AND_ORGANIZATION ( #235, #47 ) ;
#69 = PRODUCT_DEFINITION_SHAPE ( 'NONE', 'NONE',  #65 ) ;
#70 = ORIENTED_EDGE ( 'NONE', *, *, #96, .T. ) ;
#71 = DIRECTION ( 'NONE',  ( 0.000000000000000000, 0.000000000000000000, 1.000000000000000000 ) ) ;
#72 = CALENDAR_DATE ( 2022, 7, 7 ) ;
#73 =( NAMED_UNIT ( * ) PLANE_ANGLE_UNIT ( ) SI_UNIT ( $, .RADIAN. ) );
#74 = CC_DESIGN_DATE_AND_TIME_ASSIGNMENT ( #45, #179, ( #133 ) ) ;
#75 = AXIS2_PLACEMENT_3D ( 'NONE', #105, #18, #163 ) ;
#76 = ADVANCED_BREP_SHAPE_REPRESENTATION ( 'e4f4', ( #156, #75 ), #194 ) ;
#77 = CIRCLE ( 'NONE', #220, 3.500000000000000000 ) ;
#78 = DIRECTION ( 'NONE',  ( 1.000000000000000000, 0.000000000000000000, 0.000000000000000000 ) ) ;
#79 = CARTESIAN_POINT ( 'NONE',  ( 0.000000000000000000, 0.000000000000000000, 103.0000000000000142 ) ) ;
#80 = FACE_OUTER_BOUND ( 'NONE', #102, .T. ) ;
#81 = AXIS2_PLACEMENT_3D ( 'NONE', #97, #174, #217 ) ;
#82 = EDGE_CURVE ( 'NONE', #4, #243, #77, .T. ) ;
#83 = ORIENTED_EDGE ( 'NONE', *, *, #223, .T. ) ;
#84 = LOCAL_TIME ( 19, 54, 5.000000000000000000, #131 ) ;
#85 = APPROVAL_DATE_TIME ( #90, #26 ) ;
#86 = APPLICATION_CONTEXT ( 'configuration controlled 3d designs of mechanical parts and assemblies' ) ;
#87 = CARTESIAN_POINT ( 'NONE',  ( 1.750000000000000000, 2.143131898507868297E-16, 103.0000000000000142 ) ) ;
#88 = APPLICATION_PROTOCOL_DEFINITION ( 'international standard', 'config_control_design', 1994, #86 ) ;
#89 = DIRECTION ( 'NONE',  ( -1.000000000000000000, 0.000000000000000000, 0.000000000000000000 ) ) ;
#90 = DATE_AND_TIME ( #182, #250 ) ;
#91 = CC_DESIGN_DATE_AND_TIME_ASSIGNMENT ( #7, #167, ( #65 ) ) ;
#92 = DIRECTION ( 'NONE',  ( 1.000000000000000000, 0.000000000000000000, 0.000000000000000000 ) ) ;
#93 = PERSON_AND_ORGANIZATION ( #235, #47 ) ;
#94 = CC_DESIGN_APPROVAL ( #254, ( #200 ) ) ;
#95 = EDGE_LOOP ( 'NONE', ( #196, #195 ) ) ;
#96 = EDGE_CURVE ( 'NONE', #52, #116, #115, .T. ) ;
#97 = CARTESIAN_POINT ( 'NONE',  ( 0.000000000000000000, 0.000000000000000000, 3.000000000000000000 ) ) ;
#98 = ORIENTED_EDGE ( 'NONE', *, *, #103, .T. ) ;
#99 = AXIS2_PLACEMENT_3D ( 'NONE', #166, #67, #128 ) ;
#100 = ORIENTED_EDGE ( 'NONE', *, *, #249, .T. ) ;
#101 = COORDINATED_UNIVERSAL_TIME_OFFSET ( 1, 0, .AHEAD. ) ;
#102 = EDGE_LOOP ( 'NONE', ( #134, #189, #70, #176 ) ) ;
#103 = EDGE_CURVE ( 'NONE', #116, #52, #62, .T. ) ;
#104 = FACE_OUTER_BOUND ( 'NONE', #199, .T. ) ;
#105 = CARTESIAN_POINT ( 'NONE',  ( 0.000000000000000000, 0.000000000000000000, 0.000000000000000000 ) ) ;
#106 = DIRECTION ( 'NONE',  ( 1.000000000000000000, 0.000000000000000000, 0.000000000000000000 ) ) ;
#107 = AXIS2_PLACEMENT_3D ( 'NONE', #19, #190, #6 ) ;
#108 = ORIENTED_EDGE ( 'NONE', *, *, #160, .F. ) ;
#109 = FACE_OUTER_BOUND ( 'NONE', #216, .T. ) ;
#110 = COORDINATED_UNIVERSAL_TIME_OFFSET ( 1, 0, .AHEAD. ) ;
#111 =( LENGTH_UNIT ( ) NAMED_UNIT ( * ) SI_UNIT ( .MILLI., .METRE. ) );
#112 = AXIS2_PLACEMENT_3D ( 'NONE', #142, #24, #191 ) ;
#113 = CC_DESIGN_PERSON_AND_ORGANIZATION_ASSIGNMENT ( #68, #9, ( #200 ) ) ;
#114 = PLANE ( 'NONE',  #112 ) ;
#115 = CIRCLE ( 'NONE', #253, 3.500000000000000000 ) ;
#116 = VERTEX_POINT ( 'NONE', #22 ) ;
#117 = EDGE_CURVE ( 'NONE', #4, #116, #25, .T. ) ;
#118 = CC_DESIGN_APPROVAL ( #26, ( #65 ) ) ;
#119 = ORIENTED_EDGE ( 'NONE', *, *, #184, .F. ) ;
#120 = CARTESIAN_POINT ( 'NONE',  ( -3.500000000000000000, 0.000000000000000000, 3.000000000000000000 ) ) ;
#121 = DIRECTION ( 'NONE',  ( 0.000000000000000000, 0.000000000000000000, 1.000000000000000000 ) ) ;
#122 = ADVANCED_FACE ( 'NONE', ( #109 ), #226, .T. ) ;
#123 = APPROVAL_STATUS ( 'not_yet_approved' ) ;
#124 = PRODUCT ( 'e4f4', 'e4f4', '', ( #37 ) ) ;
#125 =( NAMED_UNIT ( * ) SI_UNIT ( $, .STERADIAN. ) SOLID_ANGLE_UNIT ( ) );
#126 = CARTESIAN_POINT ( 'NONE',  ( 0.000000000000000000, 0.000000000000000000, 103.0000000000000142 ) ) ;
#127 = PERSON_AND_ORGANIZATION_ROLE ( 'design_owner' ) ;
#128 = DIRECTION ( 'NONE',  ( 1.000000000000000000, 0.000000000000000000, 0.000000000000000000 ) ) ;
#129 = DATE_AND_TIME ( #32, #140 ) ;
#130 = DIRECTION ( 'NONE',  ( 1.000000000000000000, 0.000000000000000000, 0.000000000000000000 ) ) ;
#131 = COORDINATED_UNIVERSAL_TIME_OFFSET ( 1, 0, .AHEAD. ) ;
#132 = ORIENTED_EDGE ( 'NONE', *, *, #17, .F. ) ;
#133 = SECURITY_CLASSIFICATION ( '', '', #61 ) ;
#134 = ORIENTED_EDGE ( 'NONE', *, *, #249, .F. ) ;
#135 = CC_DESIGN_PERSON_AND_ORGANIZATION_ASSIGNMENT ( #238, #127, ( #124 ) ) ;
#136 = CYLINDRICAL_SURFACE ( 'NONE', #157, 1.750000000000000000 ) ;
#137 = DIRECTION ( 'NONE',  ( -1.000000000000000000, 0.000000000000000000, 0.000000000000000000 ) ) ;
#138 = FACE_OUTER_BOUND ( 'NONE', #251, .T. ) ;
#139 = CARTESIAN_POINT ( 'NONE',  ( -1.750000000000000000, 0.000000000000000000, 103.0000000000000142 ) ) ;
#140 = LOCAL_TIME ( 19, 54, 5.000000000000000000, #187 ) ;
#141 = CIRCLE ( 'NONE', #16, 1.750000000000000000 ) ;
#142 = CARTESIAN_POINT ( 'NONE',  ( 0.000000000000000000, 0.000000000000000000, 0.000000000000000000 ) ) ;
#143 = CARTESIAN_POINT ( 'NONE',  ( 3.500000000000000000, 4.286263797015736595E-16, 3.000000000000000000 ) ) ;
#144 = CARTESIAN_POINT ( 'NONE',  ( -1.750000000000000000, 0.000000000000000000, 3.000000000000000000 ) ) ;
#145 = CALENDAR_DATE ( 2022, 7, 7 ) ;
#146 = AXIS2_PLACEMENT_3D ( 'NONE', #155, #121, #15 ) ;
#147 = LINE ( 'NONE', #8, #229 ) ;
#148 = APPROVAL_PERSON_ORGANIZATION ( #2, #165, #203 ) ;
#149 = EDGE_CURVE ( 'NONE', #150, #173, #168, .T. ) ;
#150 = VERTEX_POINT ( 'NONE', #239 ) ;
#151 = CIRCLE ( 'NONE', #197, 1.750000000000000000 ) ;
#152 = DIRECTION ( 'NONE',  ( -1.000000000000000000, 0.000000000000000000, 0.000000000000000000 ) ) ;
#153 = DIRECTION ( 'NONE',  ( -0.000000000000000000, -0.000000000000000000, -1.000000000000000000 ) ) ;
#154 = CC_DESIGN_SECURITY_CLASSIFICATION ( #133, ( #200 ) ) ;
#155 = CARTESIAN_POINT ( 'NONE',  ( 0.000000000000000000, 0.000000000000000000, 103.0000000000000142 ) ) ;
#156 = MANIFOLD_SOLID_BREP ( 'Pøidat vysunutím3', #255 ) ;
#157 = AXIS2_PLACEMENT_3D ( 'NONE', #11, #247, #137 ) ;
#158 = VECTOR ( 'NONE', #248, 1000.000000000000000 ) ;
#159 = ORIENTED_EDGE ( 'NONE', *, *, #117, .T. ) ;
#160 = EDGE_CURVE ( 'NONE', #243, #52, #147, .T. ) ;
#161 = LOCAL_TIME ( 19, 54, 5.000000000000000000, #227 ) ;
#162 = CIRCLE ( 'NONE', #57, 3.500000000000000000 ) ;
#163 = DIRECTION ( 'NONE',  ( 1.000000000000000000, 0.000000000000000000, 0.000000000000000000 ) ) ;
#164 = FACE_BOUND ( 'NONE', #208, .T. ) ;
#165 = APPROVAL ( #123, 'NEURÈENÝ' ) ;
#166 = CARTESIAN_POINT ( 'NONE',  ( 0.000000000000000000, 0.000000000000000000, 3.000000000000000000 ) ) ;
#167 = DATE_TIME_ROLE ( 'creation_date' ) ;
#168 = CIRCLE ( 'NONE', #212, 1.750000000000000000 ) ;
#169 = DIRECTION ( 'NONE',  ( 1.000000000000000000, 0.000000000000000000, -0.000000000000000000 ) ) ;
#170 = PERSON_AND_ORGANIZATION_ROLE ( 'classification_officer' ) ;
#171 = DIRECTION ( 'NONE',  ( 0.000000000000000000, 0.000000000000000000, 1.000000000000000000 ) ) ;
#172 = DESIGN_CONTEXT ( 'detailed design', #56, 'design' ) ;
#173 = VERTEX_POINT ( 'NONE', #87 ) ;
#174 = DIRECTION ( 'NONE',  ( -0.000000000000000000, -0.000000000000000000, -1.000000000000000000 ) ) ;
#175 = CC_DESIGN_PERSON_AND_ORGANIZATION_ASSIGNMENT ( #225, #43, ( #65 ) ) ;
#176 = ORIENTED_EDGE ( 'NONE', *, *, #117, .F. ) ;
#177 = EDGE_LOOP ( 'NONE', ( #108, #64, #159, #98 ) ) ;
#178 = ADVANCED_FACE ( 'NONE', ( #209 ), #114, .F. ) ;
#179 = DATE_TIME_ROLE ( 'classification_date' ) ;
#180 = DIRECTION ( 'NONE',  ( -0.000000000000000000, -0.000000000000000000, -1.000000000000000000 ) ) ;
#181 = CARTESIAN_POINT ( 'NONE',  ( -3.500000000000000000, 0.000000000000000000, 3.000000000000000000 ) ) ;
#182 = CALENDAR_DATE ( 2022, 7, 7 ) ;
#183 = AXIS2_PLACEMENT_3D ( 'NONE', #49, #153, #152 ) ;
#184 = EDGE_CURVE ( 'NONE', #252, #185, #141, .T. ) ;
#185 = VERTEX_POINT ( 'NONE', #224 ) ;
#186 = DIRECTION ( 'NONE',  ( -0.000000000000000000, -0.000000000000000000, -1.000000000000000000 ) ) ;
#187 = COORDINATED_UNIVERSAL_TIME_OFFSET ( 1, 0, .AHEAD. ) ;
#188 = VECTOR ( 'NONE', #180, 1000.000000000000000 ) ;
#189 = ORIENTED_EDGE ( 'NONE', *, *, #160, .T. ) ;
#190 = DIRECTION ( 'NONE',  ( 0.000000000000000000, 0.000000000000000000, 1.000000000000000000 ) ) ;
#191 = DIRECTION ( 'NONE',  ( 1.000000000000000000, 0.000000000000000000, -0.000000000000000000 ) ) ;
#192 = VECTOR ( 'NONE', #213, 1000.000000000000000 ) ;
#193 = ORIENTED_EDGE ( 'NONE', *, *, #149, .F. ) ;
#194 =( GEOMETRIC_REPRESENTATION_CONTEXT ( 3 ) GLOBAL_UNCERTAINTY_ASSIGNED_CONTEXT ( ( #66 ) ) GLOBAL_UNIT_ASSIGNED_CONTEXT ( ( #111, #73, #125 ) ) REPRESENTATION_CONTEXT ( 'NONE', 'WORKASPACE' ) );
#195 = ORIENTED_EDGE ( 'NONE', *, *, #96, .F. ) ;
#196 = ORIENTED_EDGE ( 'NONE', *, *, #103, .F. ) ;
#197 = AXIS2_PLACEMENT_3D ( 'NONE', #79, #198, #78 ) ;
#198 = DIRECTION ( 'NONE',  ( 0.000000000000000000, 0.000000000000000000, 1.000000000000000000 ) ) ;
#199 = EDGE_LOOP ( 'NONE', ( #202, #100 ) ) ;
#200 = PRODUCT_DEFINITION_FORMATION_WITH_SPECIFIED_SOURCE ( 'LIBOVOLNÝ', '', #124, .NOT_KNOWN. ) ;
#201 = AXIS2_PLACEMENT_3D ( 'NONE', #222, #3, #89 ) ;
#202 = ORIENTED_EDGE ( 'NONE', *, *, #82, .T. ) ;
#203 = APPROVAL_ROLE ( '' ) ;
#204 = CARTESIAN_POINT ( 'NONE',  ( 0.000000000000000000, 0.000000000000000000, 3.000000000000000000 ) ) ;
#205 = CC_DESIGN_APPROVAL ( #165, ( #133 ) ) ;
#206 = DIRECTION ( 'NONE',  ( 0.000000000000000000, 0.000000000000000000, 1.000000000000000000 ) ) ;
#207 = PERSON_AND_ORGANIZATION ( #235, #47 ) ;
#208 = EDGE_LOOP ( 'NONE', ( #119, #215 ) ) ;
#209 = FACE_OUTER_BOUND ( 'NONE', #95, .T. ) ;
#210 = PERSON_AND_ORGANIZATION ( #235, #47 ) ;
#211 = DIRECTION ( 'NONE',  ( 0.000000000000000000, 0.000000000000000000, 1.000000000000000000 ) ) ;
#212 = AXIS2_PLACEMENT_3D ( 'NONE', #126, #206, #106 ) ;
#213 = DIRECTION ( 'NONE',  ( -0.000000000000000000, -0.000000000000000000, -1.000000000000000000 ) ) ;
#214 = ORIENTED_EDGE ( 'NONE', *, *, #184, .T. ) ;
#215 = ORIENTED_EDGE ( 'NONE', *, *, #223, .F. ) ;
#216 = EDGE_LOOP ( 'NONE', ( #50, #193, #27, #214 ) ) ;
#217 = DIRECTION ( 'NONE',  ( -1.000000000000000000, 0.000000000000000000, 0.000000000000000000 ) ) ;
#218 = ADVANCED_FACE ( 'NONE', ( #164, #104 ), #237, .T. ) ;
#219 = LOCAL_TIME ( 19, 54, 5.000000000000000000, #101 ) ;
#220 = AXIS2_PLACEMENT_3D ( 'NONE', #41, #171, #130 ) ;
#221 = PERSON_AND_ORGANIZATION ( #235, #47 ) ;
#222 = CARTESIAN_POINT ( 'NONE',  ( 0.000000000000000000, 0.000000000000000000, 103.0000000000000142 ) ) ;
#223 = EDGE_CURVE ( 'NONE', #185, #252, #51, .T. ) ;
#224 = CARTESIAN_POINT ( 'NONE',  ( 1.750000000000000000, 2.143131898507868297E-16, 3.000000000000000000 ) ) ;
#225 = PERSON_AND_ORGANIZATION ( #235, #47 ) ;
#226 = CYLINDRICAL_SURFACE ( 'NONE', #201, 1.750000000000000000 ) ;
#227 = COORDINATED_UNIVERSAL_TIME_OFFSET ( 1, 0, .AHEAD. ) ;
#228 = DIRECTION ( 'NONE',  ( 1.000000000000000000, 0.000000000000000000, 0.000000000000000000 ) ) ;
#229 = VECTOR ( 'NONE', #186, 1000.000000000000000 ) ;
#230 = ORIENTED_EDGE ( 'NONE', *, *, #17, .T. ) ;
#231 = FACE_OUTER_BOUND ( 'NONE', #35, .T. ) ;
#232 = CARTESIAN_POINT ( 'NONE',  ( 3.500000000000000000, 4.286263797015736595E-16, 0.000000000000000000 ) ) ;
#233 = LINE ( 'NONE', #29, #158 ) ;
#234 = ORIENTED_EDGE ( 'NONE', *, *, #1, .T. ) ;
#235 = PERSON ( 'NEURÈENÝ', 'NEURÈENÝ', 'NEURÈENÝ', ('NEURÈENÝ'), ('NEURÈENÝ'), ('NEURÈENÝ') ) ;
#236 = APPROVAL_STATUS ( 'not_yet_approved' ) ;
#237 = PLANE ( 'NONE',  #14 ) ;
#238 = PERSON_AND_ORGANIZATION ( #235, #47 ) ;
#239 = CARTESIAN_POINT ( 'NONE',  ( -1.750000000000000000, 0.000000000000000000, 103.0000000000000142 ) ) ;
#240 = APPROVAL_ROLE ( '' ) ;
#241 = CARTESIAN_POINT ( 'NONE',  ( 0.000000000000000000, 0.000000000000000000, 3.000000000000000000 ) ) ;
#242 = APPROVAL_STATUS ( 'not_yet_approved' ) ;
#243 = VERTEX_POINT ( 'NONE', #143 ) ;
#244 = CARTESIAN_POINT ( 'NONE',  ( 0.000000000000000000, 0.000000000000000000, 3.000000000000000000 ) ) ;
#245 = CC_DESIGN_PERSON_AND_ORGANIZATION_ASSIGNMENT ( #210, #23, ( #200 ) ) ;
#246 = APPROVAL_PERSON_ORGANIZATION ( #207, #26, #21 ) ;
#247 = DIRECTION ( 'NONE',  ( -0.000000000000000000, -0.000000000000000000, -1.000000000000000000 ) ) ;
#248 = DIRECTION ( 'NONE',  ( -0.000000000000000000, -0.000000000000000000, -1.000000000000000000 ) ) ;
#249 = EDGE_CURVE ( 'NONE', #243, #4, #162, .T. ) ;
#250 = LOCAL_TIME ( 19, 54, 5.000000000000000000, #110 ) ;
#251 = EDGE_LOOP ( 'NONE', ( #132, #234, #83, #48 ) ) ;
#252 = VERTEX_POINT ( 'NONE', #144 ) ;
#253 = AXIS2_PLACEMENT_3D ( 'NONE', #10, #44, #36 ) ;
#254 = APPROVAL ( #236, 'NEURÈENÝ' ) ;
#255 = CLOSED_SHELL ( 'NONE', ( #5, #31, #42, #218, #178, #122, #40 ) ) ;
ENDSEC;
END-ISO-10303-21;
