ISO-10303-21;
HEADER;
FILE_DESCRIPTION (( 'STEP AP203' ),
    '1' );
FILE_NAME ('3e6a.STEP',
    '2022-07-07T17:28:51',
    ( '' ),
    ( '' ),
    'SwSTEP 2.0',
    'SolidWorks 2019',
    '' );
FILE_SCHEMA (( 'CONFIG_CONTROL_DESIGN' ));
ENDSEC;

DATA;
#1 = APPLICATION_CONTEXT ( 'configuration controlled 3d designs of mechanical parts and assemblies' ) ;
#2 = DIRECTION ( 'NONE',  ( 0.000000000000000000, 0.000000000000000000, 1.000000000000000000 ) ) ;
#3 = CARTESIAN_POINT ( 'NONE',  ( 0.000000000000000000, 0.000000000000000000, 5.000000000000000000 ) ) ;
#4 = CARTESIAN_POINT ( 'NONE',  ( 0.000000000000000000, 0.000000000000000000, 205.0000000000000284 ) ) ;
#5 = ORIENTED_EDGE ( 'NONE', *, *, #194, .T. ) ;
#6 = CARTESIAN_POINT ( 'NONE',  ( 0.000000000000000000, 0.000000000000000000, 205.0000000000000284 ) ) ;
#7 = CC_DESIGN_PERSON_AND_ORGANIZATION_ASSIGNMENT ( #74, #49, ( #225 ) ) ;
#8 =( GEOMETRIC_REPRESENTATION_CONTEXT ( 3 ) GLOBAL_UNCERTAINTY_ASSIGNED_CONTEXT ( ( #43 ) ) GLOBAL_UNIT_ASSIGNED_CONTEXT ( ( #93, #19, #95 ) ) REPRESENTATION_CONTEXT ( 'NONE', 'WORKASPACE' ) );
#9 = DIRECTION ( 'NONE',  ( -0.000000000000000000, -0.000000000000000000, -1.000000000000000000 ) ) ;
#10 = CARTESIAN_POINT ( 'NONE',  ( 4.500000000000000000, 5.510910596163088569E-16, 205.0000000000000284 ) ) ;
#11 = CARTESIAN_POINT ( 'NONE',  ( 0.000000000000000000, 0.000000000000000000, 0.000000000000000000 ) ) ;
#12 = ORIENTED_EDGE ( 'NONE', *, *, #141, .F. ) ;
#13 = LINE ( 'NONE', #180, #155 ) ;
#14 = FACE_OUTER_BOUND ( 'NONE', #169, .T. ) ;
#15 = AXIS2_PLACEMENT_3D ( 'NONE', #216, #29, #101 ) ;
#16 = CC_DESIGN_PERSON_AND_ORGANIZATION_ASSIGNMENT ( #233, #172, ( #170 ) ) ;
#17 = COORDINATED_UNIVERSAL_TIME_OFFSET ( 1, 0, .AHEAD. ) ;
#18 = APPROVAL_PERSON_ORGANIZATION ( #209, #47, #228 ) ;
#19 =( NAMED_UNIT ( * ) PLANE_ANGLE_UNIT ( ) SI_UNIT ( $, .RADIAN. ) );
#20 = ORIENTED_EDGE ( 'NONE', *, *, #124, .T. ) ;
#21 = PLANE ( 'NONE',  #189 ) ;
#22 = ORIENTED_EDGE ( 'NONE', *, *, #90, .F. ) ;
#23 = ADVANCED_FACE ( 'NONE', ( #44 ), #145, .F. ) ;
#24 = DIRECTION ( 'NONE',  ( 1.000000000000000000, 0.000000000000000000, 0.000000000000000000 ) ) ;
#25 = FACE_OUTER_BOUND ( 'NONE', #119, .T. ) ;
#26 = EDGE_LOOP ( 'NONE', ( #28, #82 ) ) ;
#27 = CYLINDRICAL_SURFACE ( 'NONE', #178, 4.500000000000000000 ) ;
#28 = ORIENTED_EDGE ( 'NONE', *, *, #102, .F. ) ;
#29 = DIRECTION ( 'NONE',  ( 0.000000000000000000, 0.000000000000000000, 1.000000000000000000 ) ) ;
#30 = ORIENTED_EDGE ( 'NONE', *, *, #102, .T. ) ;
#31 = AXIS2_PLACEMENT_3D ( 'NONE', #147, #224, #46 ) ;
#32 = AXIS2_PLACEMENT_3D ( 'NONE', #175, #2, #140 ) ;
#33 = EDGE_CURVE ( 'NONE', #197, #105, #94, .T. ) ;
#34 = DATE_AND_TIME ( #73, #89 ) ;
#35 = AXIS2_PLACEMENT_3D ( 'NONE', #78, #80, #98 ) ;
#36 = PERSON_AND_ORGANIZATION_ROLE ( 'classification_officer' ) ;
#37 = PERSON_AND_ORGANIZATION ( #134, #113 ) ;
#38 = COORDINATED_UNIVERSAL_TIME_OFFSET ( 1, 0, .AHEAD. ) ;
#39 = SECURITY_CLASSIFICATION ( '', '', #51 ) ;
#40 = DIRECTION ( 'NONE',  ( 1.000000000000000000, 0.000000000000000000, 0.000000000000000000 ) ) ;
#41 = CARTESIAN_POINT ( 'NONE',  ( -7.000000000000000000, 0.000000000000000000, 5.000000000000000000 ) ) ;
#42 = DIRECTION ( 'NONE',  ( 0.000000000000000000, 0.000000000000000000, 1.000000000000000000 ) ) ;
#43 = UNCERTAINTY_MEASURE_WITH_UNIT (LENGTH_MEASURE( 1.000000000000000082E-05 ), #93, 'distance_accuracy_value', 'NONE');
#44 = FACE_OUTER_BOUND ( 'NONE', #76, .T. ) ;
#45 = CARTESIAN_POINT ( 'NONE',  ( 0.000000000000000000, 0.000000000000000000, 205.0000000000000284 ) ) ;
#46 = DIRECTION ( 'NONE',  ( 1.000000000000000000, 0.000000000000000000, 0.000000000000000000 ) ) ;
#47 = APPROVAL ( #173, 'NEURÈENÝ' ) ;
#48 = CC_DESIGN_APPROVAL ( #47, ( #39 ) ) ;
#49 = PERSON_AND_ORGANIZATION_ROLE ( 'design_owner' ) ;
#50 = LOCAL_TIME ( 19, 28, 51.00000000000000000, #17 ) ;
#51 = SECURITY_CLASSIFICATION_LEVEL ( 'unclassified' ) ;
#52 = PERSON_AND_ORGANIZATION ( #134, #113 ) ;
#53 = APPROVAL_STATUS ( 'not_yet_approved' ) ;
#54 = PERSON_AND_ORGANIZATION ( #134, #113 ) ;
#55 = DIRECTION ( 'NONE',  ( 0.000000000000000000, 0.000000000000000000, 1.000000000000000000 ) ) ;
#56 = ORIENTED_EDGE ( 'NONE', *, *, #247, .T. ) ;
#57 = VERTEX_POINT ( 'NONE', #41 ) ;
#58 = EDGE_LOOP ( 'NONE', ( #5, #201 ) ) ;
#59 = CARTESIAN_POINT ( 'NONE',  ( 0.000000000000000000, 0.000000000000000000, 205.0000000000000284 ) ) ;
#60 = CARTESIAN_POINT ( 'NONE',  ( 7.000000000000000000, 8.572527594031473190E-16, 0.000000000000000000 ) ) ;
#61 = DIRECTION ( 'NONE',  ( -0.000000000000000000, -0.000000000000000000, -1.000000000000000000 ) ) ;
#62 = DIRECTION ( 'NONE',  ( 1.000000000000000000, 0.000000000000000000, -0.000000000000000000 ) ) ;
#63 = ORIENTED_EDGE ( 'NONE', *, *, #141, .T. ) ;
#64 = ORIENTED_EDGE ( 'NONE', *, *, #213, .T. ) ;
#65 = VERTEX_POINT ( 'NONE', #236 ) ;
#66 = AXIS2_PLACEMENT_3D ( 'NONE', #200, #168, #244 ) ;
#67 = EDGE_CURVE ( 'NONE', #123, #197, #150, .T. ) ;
#68 = AXIS2_PLACEMENT_3D ( 'NONE', #3, #159, #221 ) ;
#69 = AXIS2_PLACEMENT_3D ( 'NONE', #4, #196, #77 ) ;
#70 = PERSON_AND_ORGANIZATION ( #134, #113 ) ;
#71 = DESIGN_CONTEXT ( 'detailed design', #97, 'design' ) ;
#72 = CC_DESIGN_PERSON_AND_ORGANIZATION_ASSIGNMENT ( #54, #36, ( #39 ) ) ;
#73 = CALENDAR_DATE ( 2022, 7, 7 ) ;
#74 = PERSON_AND_ORGANIZATION ( #134, #113 ) ;
#75 = APPLICATION_PROTOCOL_DEFINITION ( 'international standard', 'config_control_design', 1994, #1 ) ;
#76 = EDGE_LOOP ( 'NONE', ( #22, #241 ) ) ;
#77 = DIRECTION ( 'NONE',  ( -1.000000000000000000, 0.000000000000000000, 0.000000000000000000 ) ) ;
#78 = CARTESIAN_POINT ( 'NONE',  ( 0.000000000000000000, 0.000000000000000000, 5.000000000000000000 ) ) ;
#79 = EDGE_LOOP ( 'NONE', ( #245, #148, #96, #30 ) ) ;
#80 = DIRECTION ( 'NONE',  ( 0.000000000000000000, 0.000000000000000000, 1.000000000000000000 ) ) ;
#81 = EDGE_CURVE ( 'NONE', #57, #243, #13, .T. ) ;
#82 = ORIENTED_EDGE ( 'NONE', *, *, #213, .F. ) ;
#83 = DIRECTION ( 'NONE',  ( 1.000000000000000000, 0.000000000000000000, 0.000000000000000000 ) ) ;
#84 = CC_DESIGN_APPROVAL ( #251, ( #170 ) ) ;
#85 = VECTOR ( 'NONE', #160, 1000.000000000000000 ) ;
#86 = CIRCLE ( 'NONE', #222, 7.000000000000000000 ) ;
#87 = APPROVAL ( #53, 'NEURÈENÝ' ) ;
#88 = CALENDAR_DATE ( 2022, 7, 7 ) ;
#89 = LOCAL_TIME ( 19, 28, 51.00000000000000000, #207 ) ;
#90 = EDGE_CURVE ( 'NONE', #243, #219, #217, .T. ) ;
#91 = PERSON_AND_ORGANIZATION_ROLE ( 'creator' ) ;
#92 = DATE_AND_TIME ( #115, #174 ) ;
#93 =( LENGTH_UNIT ( ) NAMED_UNIT ( * ) SI_UNIT ( .MILLI., .METRE. ) );
#94 = LINE ( 'NONE', #214, #85 ) ;
#95 =( NAMED_UNIT ( * ) SI_UNIT ( $, .STERADIAN. ) SOLID_ANGLE_UNIT ( ) );
#96 = ORIENTED_EDGE ( 'NONE', *, *, #33, .T. ) ;
#97 = APPLICATION_CONTEXT ( 'configuration controlled 3d designs of mechanical parts and assemblies' ) ;
#98 = DIRECTION ( 'NONE',  ( 1.000000000000000000, 0.000000000000000000, 0.000000000000000000 ) ) ;
#99 = AXIS2_PLACEMENT_3D ( 'NONE', #6, #242, #83 ) ;
#100 = FACE_OUTER_BOUND ( 'NONE', #58, .T. ) ;
#101 = DIRECTION ( 'NONE',  ( 1.000000000000000000, 0.000000000000000000, -0.000000000000000000 ) ) ;
#102 = EDGE_CURVE ( 'NONE', #105, #107, #254, .T. ) ;
#103 = CARTESIAN_POINT ( 'NONE',  ( -4.500000000000000000, 0.000000000000000000, 205.0000000000000284 ) ) ;
#104 = PRODUCT_DEFINITION_SHAPE ( 'NONE', 'NONE',  #229 ) ;
#105 = VERTEX_POINT ( 'NONE', #122 ) ;
#106 = DIRECTION ( 'NONE',  ( -0.000000000000000000, -0.000000000000000000, -1.000000000000000000 ) ) ;
#107 = VERTEX_POINT ( 'NONE', #163 ) ;
#108 = ORIENTED_EDGE ( 'NONE', *, *, #114, .F. ) ;
#109 = CC_DESIGN_DATE_AND_TIME_ASSIGNMENT ( #92, #157, ( #229 ) ) ;
#110 = AXIS2_PLACEMENT_3D ( 'NONE', #198, #206, #24 ) ;
#111 = ADVANCED_FACE ( 'NONE', ( #239 ), #27, .T. ) ;
#112 = CIRCLE ( 'NONE', #125, 4.500000000000000000 ) ;
#113 = ORGANIZATION ( 'NEURÈENÝ', 'NEURÈENÝ', '' ) ;
#114 = EDGE_CURVE ( 'NONE', #57, #65, #118, .T. ) ;
#115 = CALENDAR_DATE ( 2022, 7, 7 ) ;
#116 = DIRECTION ( 'NONE',  ( -0.000000000000000000, -0.000000000000000000, -1.000000000000000000 ) ) ;
#117 = DIRECTION ( 'NONE',  ( -1.000000000000000000, 0.000000000000000000, 0.000000000000000000 ) ) ;
#118 = CIRCLE ( 'NONE', #66, 7.000000000000000000 ) ;
#119 = EDGE_LOOP ( 'NONE', ( #12, #56, #238, #179 ) ) ;
#120 = CYLINDRICAL_SURFACE ( 'NONE', #136, 7.000000000000000000 ) ;
#121 = DIRECTION ( 'NONE',  ( 0.000000000000000000, 0.000000000000000000, 1.000000000000000000 ) ) ;
#122 = CARTESIAN_POINT ( 'NONE',  ( -4.500000000000000000, 0.000000000000000000, 5.000000000000000000 ) ) ;
#123 = VERTEX_POINT ( 'NONE', #165 ) ;
#124 = EDGE_CURVE ( 'NONE', #123, #107, #183, .T. ) ;
#125 = AXIS2_PLACEMENT_3D ( 'NONE', #45, #42, #40 ) ;
#126 = LOCAL_TIME ( 19, 28, 51.00000000000000000, #154 ) ;
#127 = APPROVAL_DATE_TIME ( #193, #251 ) ;
#128 = ADVANCED_FACE ( 'NONE', ( #220 ), #120, .T. ) ;
#129 = APPROVAL_STATUS ( 'not_yet_approved' ) ;
#130 = PERSON_AND_ORGANIZATION_ROLE ( 'creator' ) ;
#131 = DATE_TIME_ROLE ( 'classification_date' ) ;
#132 = COORDINATED_UNIVERSAL_TIME_OFFSET ( 1, 0, .AHEAD. ) ;
#133 = PRODUCT_RELATED_PRODUCT_CATEGORY ( 'detail', '', ( #225 ) ) ;
#134 = PERSON ( 'NEURÈENÝ', 'NEURÈENÝ', 'NEURÈENÝ', ('NEURÈENÝ'), ('NEURÈENÝ'), ('NEURÈENÝ') ) ;
#135 = MANIFOLD_SOLID_BREP ( 'Pøidat vysunutím3', #149 ) ;
#136 = AXIS2_PLACEMENT_3D ( 'NONE', #202, #106, #184 ) ;
#137 = DIRECTION ( 'NONE',  ( 1.000000000000000000, 0.000000000000000000, 0.000000000000000000 ) ) ;
#138 = ORIENTED_EDGE ( 'NONE', *, *, #247, .F. ) ;
#139 = ORIENTED_EDGE ( 'NONE', *, *, #81, .T. ) ;
#140 = DIRECTION ( 'NONE',  ( 1.000000000000000000, 0.000000000000000000, 0.000000000000000000 ) ) ;
#141 = EDGE_CURVE ( 'NONE', #65, #57, #248, .T. ) ;
#142 = ORIENTED_EDGE ( 'NONE', *, *, #67, .F. ) ;
#143 = DIRECTION ( 'NONE',  ( -0.000000000000000000, -0.000000000000000000, -1.000000000000000000 ) ) ;
#144 = CARTESIAN_POINT ( 'NONE',  ( 0.000000000000000000, 0.000000000000000000, 5.000000000000000000 ) ) ;
#145 = PLANE ( 'NONE',  #15 ) ;
#146 = CARTESIAN_POINT ( 'NONE',  ( 0.000000000000000000, 0.000000000000000000, 205.0000000000000284 ) ) ;
#147 = CARTESIAN_POINT ( 'NONE',  ( 0.000000000000000000, 0.000000000000000000, 5.000000000000000000 ) ) ;
#148 = ORIENTED_EDGE ( 'NONE', *, *, #194, .F. ) ;
#149 = CLOSED_SHELL ( 'NONE', ( #111, #234, #128, #158, #23, #185, #176 ) ) ;
#150 = CIRCLE ( 'NONE', #99, 4.500000000000000000 ) ;
#151 = CC_DESIGN_PERSON_AND_ORGANIZATION_ASSIGNMENT ( #52, #91, ( #229 ) ) ;
#152 = AXIS2_PLACEMENT_3D ( 'NONE', #240, #121, #137 ) ;
#153 = CC_DESIGN_SECURITY_CLASSIFICATION ( #39, ( #170 ) ) ;
#154 = COORDINATED_UNIVERSAL_TIME_OFFSET ( 1, 0, .AHEAD. ) ;
#155 = VECTOR ( 'NONE', #116, 1000.000000000000000 ) ;
#156 = APPROVAL_DATE_TIME ( #249, #87 ) ;
#157 = DATE_TIME_ROLE ( 'creation_date' ) ;
#158 = ADVANCED_FACE ( 'NONE', ( #187, #14 ), #177, .T. ) ;
#159 = DIRECTION ( 'NONE',  ( 0.000000000000000000, 0.000000000000000000, 1.000000000000000000 ) ) ;
#160 = DIRECTION ( 'NONE',  ( -0.000000000000000000, -0.000000000000000000, -1.000000000000000000 ) ) ;
#161 = LINE ( 'NONE', #215, #192 ) ;
#162 = EDGE_LOOP ( 'NONE', ( #138, #108, #139, #167 ) ) ;
#163 = CARTESIAN_POINT ( 'NONE',  ( 4.500000000000000000, 5.510910596163088569E-16, 5.000000000000000000 ) ) ;
#164 = DIRECTION ( 'NONE',  ( 0.000000000000000000, 0.000000000000000000, 1.000000000000000000 ) ) ;
#165 = CARTESIAN_POINT ( 'NONE',  ( 4.500000000000000000, 5.510910596163088569E-16, 205.0000000000000284 ) ) ;
#166 = DIRECTION ( 'NONE',  ( -1.000000000000000000, 0.000000000000000000, 0.000000000000000000 ) ) ;
#167 = ORIENTED_EDGE ( 'NONE', *, *, #90, .T. ) ;
#168 = DIRECTION ( 'NONE',  ( 0.000000000000000000, 0.000000000000000000, 1.000000000000000000 ) ) ;
#169 = EDGE_LOOP ( 'NONE', ( #205, #63 ) ) ;
#170 = PRODUCT_DEFINITION_FORMATION_WITH_SPECIFIED_SOURCE ( 'LIBOVOLNÝ', '', #225, .NOT_KNOWN. ) ;
#171 = APPROVAL_ROLE ( '' ) ;
#172 = PERSON_AND_ORGANIZATION_ROLE ( 'design_supplier' ) ;
#173 = APPROVAL_STATUS ( 'not_yet_approved' ) ;
#174 = LOCAL_TIME ( 19, 28, 51.00000000000000000, #38 ) ;
#175 = CARTESIAN_POINT ( 'NONE',  ( 0.000000000000000000, 0.000000000000000000, 0.000000000000000000 ) ) ;
#176 = ADVANCED_FACE ( 'NONE', ( #100 ), #21, .T. ) ;
#177 = PLANE ( 'NONE',  #68 ) ;
#178 = AXIS2_PLACEMENT_3D ( 'NONE', #59, #143, #117 ) ;
#179 = ORIENTED_EDGE ( 'NONE', *, *, #81, .F. ) ;
#180 = CARTESIAN_POINT ( 'NONE',  ( -7.000000000000000000, 0.000000000000000000, 5.000000000000000000 ) ) ;
#181 = CYLINDRICAL_SURFACE ( 'NONE', #250, 7.000000000000000000 ) ;
#182 = APPROVAL_PERSON_ORGANIZATION ( #70, #87, #231 ) ;
#183 = LINE ( 'NONE', #10, #208 ) ;
#184 = DIRECTION ( 'NONE',  ( -1.000000000000000000, 0.000000000000000000, 0.000000000000000000 ) ) ;
#185 = ADVANCED_FACE ( 'NONE', ( #218 ), #212, .T. ) ;
#186 = EDGE_LOOP ( 'NONE', ( #142, #20, #64, #226 ) ) ;
#187 = FACE_BOUND ( 'NONE', #26, .T. ) ;
#188 = ADVANCED_BREP_SHAPE_REPRESENTATION ( '3e6a', ( #135, #32 ), #8 ) ;
#189 = AXIS2_PLACEMENT_3D ( 'NONE', #146, #164, #62 ) ;
#190 = CC_DESIGN_PERSON_AND_ORGANIZATION_ASSIGNMENT ( #37, #130, ( #170 ) ) ;
#191 = EDGE_CURVE ( 'NONE', #219, #243, #86, .T. ) ;
#192 = VECTOR ( 'NONE', #235, 1000.000000000000000 ) ;
#193 = DATE_AND_TIME ( #230, #223 ) ;
#194 = EDGE_CURVE ( 'NONE', #197, #123, #112, .T. ) ;
#195 = MECHANICAL_CONTEXT ( 'NONE', #1, 'mechanical' ) ;
#196 = DIRECTION ( 'NONE',  ( -0.000000000000000000, -0.000000000000000000, -1.000000000000000000 ) ) ;
#197 = VERTEX_POINT ( 'NONE', #103 ) ;
#198 = CARTESIAN_POINT ( 'NONE',  ( 0.000000000000000000, 0.000000000000000000, 0.000000000000000000 ) ) ;
#199 = DIRECTION ( 'NONE',  ( 1.000000000000000000, 0.000000000000000000, 0.000000000000000000 ) ) ;
#200 = CARTESIAN_POINT ( 'NONE',  ( 0.000000000000000000, 0.000000000000000000, 5.000000000000000000 ) ) ;
#201 = ORIENTED_EDGE ( 'NONE', *, *, #67, .T. ) ;
#202 = CARTESIAN_POINT ( 'NONE',  ( 0.000000000000000000, 0.000000000000000000, 5.000000000000000000 ) ) ;
#203 = CC_DESIGN_DATE_AND_TIME_ASSIGNMENT ( #253, #131, ( #39 ) ) ;
#204 = CARTESIAN_POINT ( 'NONE',  ( -7.000000000000000000, 0.000000000000000000, 0.000000000000000000 ) ) ;
#205 = ORIENTED_EDGE ( 'NONE', *, *, #114, .T. ) ;
#206 = DIRECTION ( 'NONE',  ( 0.000000000000000000, 0.000000000000000000, 1.000000000000000000 ) ) ;
#207 = COORDINATED_UNIVERSAL_TIME_OFFSET ( 1, 0, .AHEAD. ) ;
#208 = VECTOR ( 'NONE', #61, 1000.000000000000000 ) ;
#209 = PERSON_AND_ORGANIZATION ( #134, #113 ) ;
#210 = SHAPE_DEFINITION_REPRESENTATION ( #104, #188 ) ;
#211 = PERSON_AND_ORGANIZATION ( #134, #113 ) ;
#212 = CYLINDRICAL_SURFACE ( 'NONE', #69, 4.500000000000000000 ) ;
#213 = EDGE_CURVE ( 'NONE', #107, #105, #237, .T. ) ;
#214 = CARTESIAN_POINT ( 'NONE',  ( -4.500000000000000000, 0.000000000000000000, 205.0000000000000284 ) ) ;
#215 = CARTESIAN_POINT ( 'NONE',  ( 7.000000000000000000, 8.572527594031473190E-16, 5.000000000000000000 ) ) ;
#216 = CARTESIAN_POINT ( 'NONE',  ( 0.000000000000000000, 0.000000000000000000, 0.000000000000000000 ) ) ;
#217 = CIRCLE ( 'NONE', #110, 7.000000000000000000 ) ;
#218 = FACE_OUTER_BOUND ( 'NONE', #79, .T. ) ;
#219 = VERTEX_POINT ( 'NONE', #60 ) ;
#220 = FACE_OUTER_BOUND ( 'NONE', #162, .T. ) ;
#221 = DIRECTION ( 'NONE',  ( 1.000000000000000000, 0.000000000000000000, -0.000000000000000000 ) ) ;
#222 = AXIS2_PLACEMENT_3D ( 'NONE', #11, #55, #199 ) ;
#223 = LOCAL_TIME ( 19, 28, 51.00000000000000000, #132 ) ;
#224 = DIRECTION ( 'NONE',  ( 0.000000000000000000, 0.000000000000000000, 1.000000000000000000 ) ) ;
#225 = PRODUCT ( '3e6a', '3e6a', '', ( #195 ) ) ;
#226 = ORIENTED_EDGE ( 'NONE', *, *, #33, .F. ) ;
#227 = CALENDAR_DATE ( 2022, 7, 7 ) ;
#228 = APPROVAL_ROLE ( '' ) ;
#229 = PRODUCT_DEFINITION ( 'NEZNÁMÝ', '', #170, #71 ) ;
#230 = CALENDAR_DATE ( 2022, 7, 7 ) ;
#231 = APPROVAL_ROLE ( '' ) ;
#232 = CC_DESIGN_APPROVAL ( #87, ( #229 ) ) ;
#233 = PERSON_AND_ORGANIZATION ( #134, #113 ) ;
#234 = ADVANCED_FACE ( 'NONE', ( #25 ), #181, .T. ) ;
#235 = DIRECTION ( 'NONE',  ( -0.000000000000000000, -0.000000000000000000, -1.000000000000000000 ) ) ;
#236 = CARTESIAN_POINT ( 'NONE',  ( 7.000000000000000000, 8.572527594031473190E-16, 5.000000000000000000 ) ) ;
#237 = CIRCLE ( 'NONE', #152, 4.500000000000000000 ) ;
#238 = ORIENTED_EDGE ( 'NONE', *, *, #191, .T. ) ;
#239 = FACE_OUTER_BOUND ( 'NONE', #186, .T. ) ;
#240 = CARTESIAN_POINT ( 'NONE',  ( 0.000000000000000000, 0.000000000000000000, 5.000000000000000000 ) ) ;
#241 = ORIENTED_EDGE ( 'NONE', *, *, #191, .F. ) ;
#242 = DIRECTION ( 'NONE',  ( 0.000000000000000000, 0.000000000000000000, 1.000000000000000000 ) ) ;
#243 = VERTEX_POINT ( 'NONE', #204 ) ;
#244 = DIRECTION ( 'NONE',  ( 1.000000000000000000, 0.000000000000000000, 0.000000000000000000 ) ) ;
#245 = ORIENTED_EDGE ( 'NONE', *, *, #124, .F. ) ;
#246 = APPROVAL_PERSON_ORGANIZATION ( #211, #251, #171 ) ;
#247 = EDGE_CURVE ( 'NONE', #65, #219, #161, .T. ) ;
#248 = CIRCLE ( 'NONE', #31, 7.000000000000000000 ) ;
#249 = DATE_AND_TIME ( #88, #50 ) ;
#250 = AXIS2_PLACEMENT_3D ( 'NONE', #144, #9, #166 ) ;
#251 = APPROVAL ( #129, 'NEURÈENÝ' ) ;
#252 = APPROVAL_DATE_TIME ( #34, #47 ) ;
#253 = DATE_AND_TIME ( #227, #126 ) ;
#254 = CIRCLE ( 'NONE', #35, 4.500000000000000000 ) ;
#255 = APPLICATION_PROTOCOL_DEFINITION ( 'international standard', 'config_control_design', 1994, #97 ) ;
ENDSEC;
END-ISO-10303-21;
