ISO-10303-21;
HEADER;
FILE_DESCRIPTION (( 'STEP AP203' ),
    '1' );
FILE_NAME ('5413.STEP',
    '2023-02-13T10:41:56',
    ( '' ),
    ( '' ),
    'SwSTEP 2.0',
    'SolidWorks 2019',
    '' );
FILE_SCHEMA (( 'CONFIG_CONTROL_DESIGN' ));
ENDSEC;

DATA;
#1 = CARTESIAN_POINT ( 'NONE',  ( 0.000000000000000000, 0.000000000000000000, 0.000000000000000000 ) ) ;
#2 = AXIS2_PLACEMENT_3D ( 'NONE', #235, #61, #219 ) ;
#3 = CARTESIAN_POINT ( 'NONE',  ( 0.000000000000000000, 0.000000000000000000, 125.0000000000000000 ) ) ;
#4 = EDGE_CURVE ( 'NONE', #6, #120, #5, .T. ) ;
#5 = CIRCLE ( 'NONE', #35, 11.00000000000000000 ) ;
#6 = VERTEX_POINT ( 'NONE', #88 ) ;
#7 = LOCAL_TIME ( 11, 41, 56.00000000000000000, #237 ) ;
#8 = COORDINATED_UNIVERSAL_TIME_OFFSET ( 1, 0, .AHEAD. ) ;
#9 = DIRECTION ( 'NONE',  ( 1.000000000000000000, 0.000000000000000000, 0.000000000000000000 ) ) ;
#10 = ADVANCED_FACE ( 'NONE', ( #245 ), #33, .T. ) ;
#11 = CARTESIAN_POINT ( 'NONE',  ( -7.250000000000000000, 0.000000000000000000, 125.0000000000000000 ) ) ;
#12 = CC_DESIGN_APPROVAL ( #155, ( #129 ) ) ;
#13 = CARTESIAN_POINT ( 'NONE',  ( 11.00000000000000000, 1.347111479062088405E-15, 7.000000000000000000 ) ) ;
#14 = PERSON_AND_ORGANIZATION ( #156, #244 ) ;
#15 = EDGE_CURVE ( 'NONE', #147, #247, #164, .T. ) ;
#16 = CARTESIAN_POINT ( 'NONE',  ( 0.000000000000000000, 0.000000000000000000, 7.000000000000000000 ) ) ;
#17 = CC_DESIGN_PERSON_AND_ORGANIZATION_ASSIGNMENT ( #193, #251, ( #47 ) ) ;
#18 = FACE_OUTER_BOUND ( 'NONE', #163, .T. ) ;
#19 = ORIENTED_EDGE ( 'NONE', *, *, #94, .T. ) ;
#20 = EDGE_CURVE ( 'NONE', #54, #6, #226, .T. ) ;
#21 = DIRECTION ( 'NONE',  ( -0.000000000000000000, -0.000000000000000000, -1.000000000000000000 ) ) ;
#22 = ORIENTED_EDGE ( 'NONE', *, *, #15, .F. ) ;
#23 = CARTESIAN_POINT ( 'NONE',  ( -11.00000000000000000, 0.000000000000000000, 0.000000000000000000 ) ) ;
#24 = DIRECTION ( 'NONE',  ( 0.000000000000000000, 0.000000000000000000, 1.000000000000000000 ) ) ;
#25 = ORIENTED_EDGE ( 'NONE', *, *, #166, .T. ) ;
#26 = CIRCLE ( 'NONE', #2, 7.250000000000000000 ) ;
#27 = CARTESIAN_POINT ( 'NONE',  ( 0.000000000000000000, 0.000000000000000000, 7.000000000000000000 ) ) ;
#28 = CC_DESIGN_PERSON_AND_ORGANIZATION_ASSIGNMENT ( #133, #255, ( #47 ) ) ;
#29 = CARTESIAN_POINT ( 'NONE',  ( 0.000000000000000000, 0.000000000000000000, 0.000000000000000000 ) ) ;
#30 = ORIENTED_EDGE ( 'NONE', *, *, #52, .F. ) ;
#31 = PERSON_AND_ORGANIZATION ( #156, #244 ) ;
#32 = LOCAL_TIME ( 11, 41, 56.00000000000000000, #153 ) ;
#33 = CYLINDRICAL_SURFACE ( 'NONE', #175, 11.00000000000000000 ) ;
#34 = ADVANCED_BREP_SHAPE_REPRESENTATION ( '5413', ( #44, #220 ), #231 ) ;
#35 = AXIS2_PLACEMENT_3D ( 'NONE', #130, #210, #121 ) ;
#36 = UNCERTAINTY_MEASURE_WITH_UNIT (LENGTH_MEASURE( 1.000000000000000082E-05 ), #139, 'distance_accuracy_value', 'NONE');
#37 = FACE_OUTER_BOUND ( 'NONE', #45, .T. ) ;
#38 = EDGE_LOOP ( 'NONE', ( #19, #86 ) ) ;
#39 = VECTOR ( 'NONE', #77, 1000.000000000000000 ) ;
#40 = DIRECTION ( 'NONE',  ( -0.000000000000000000, -0.000000000000000000, -1.000000000000000000 ) ) ;
#41 = APPROVAL_PERSON_ORGANIZATION ( #14, #75, #168 ) ;
#42 = CARTESIAN_POINT ( 'NONE',  ( 0.000000000000000000, 0.000000000000000000, 7.000000000000000000 ) ) ;
#43 = ORIENTED_EDGE ( 'NONE', *, *, #214, .F. ) ;
#44 = MANIFOLD_SOLID_BREP ( 'Pøidat vysunutím3', #241 ) ;
#45 = EDGE_LOOP ( 'NONE', ( #67, #25 ) ) ;
#46 = APPROVAL_DATE_TIME ( #205, #155 ) ;
#47 = PRODUCT_DEFINITION_FORMATION_WITH_SPECIFIED_SOURCE ( 'LIBOVOLNÝ', '', #180, .NOT_KNOWN. ) ;
#48 = ORIENTED_EDGE ( 'NONE', *, *, #15, .T. ) ;
#49 = DIRECTION ( 'NONE',  ( 1.000000000000000000, 0.000000000000000000, 0.000000000000000000 ) ) ;
#50 = DIRECTION ( 'NONE',  ( 1.000000000000000000, 0.000000000000000000, 0.000000000000000000 ) ) ;
#51 = PERSON_AND_ORGANIZATION ( #156, #244 ) ;
#52 = EDGE_CURVE ( 'NONE', #120, #6, #183, .T. ) ;
#53 = ORIENTED_EDGE ( 'NONE', *, *, #20, .F. ) ;
#54 = VERTEX_POINT ( 'NONE', #187 ) ;
#55 = DIRECTION ( 'NONE',  ( 1.000000000000000000, 0.000000000000000000, -0.000000000000000000 ) ) ;
#56 = AXIS2_PLACEMENT_3D ( 'NONE', #173, #161, #63 ) ;
#57 = CALENDAR_DATE ( 2023, 13, 2 ) ;
#58 = DESIGN_CONTEXT ( 'detailed design', #135, 'design' ) ;
#59 = CIRCLE ( 'NONE', #56, 7.250000000000000000 ) ;
#60 = DIRECTION ( 'NONE',  ( -0.000000000000000000, -0.000000000000000000, -1.000000000000000000 ) ) ;
#61 = DIRECTION ( 'NONE',  ( 0.000000000000000000, 0.000000000000000000, 1.000000000000000000 ) ) ;
#62 = CARTESIAN_POINT ( 'NONE',  ( 7.250000000000000000, 8.878689293818310074E-16, 125.0000000000000000 ) ) ;
#63 = DIRECTION ( 'NONE',  ( 1.000000000000000000, 0.000000000000000000, 0.000000000000000000 ) ) ;
#64 = CARTESIAN_POINT ( 'NONE',  ( -11.00000000000000000, 0.000000000000000000, 7.000000000000000000 ) ) ;
#65 = CC_DESIGN_PERSON_AND_ORGANIZATION_ASSIGNMENT ( #31, #103, ( #129 ) ) ;
#66 = DIRECTION ( 'NONE',  ( 0.000000000000000000, 0.000000000000000000, 1.000000000000000000 ) ) ;
#67 = ORIENTED_EDGE ( 'NONE', *, *, #108, .T. ) ;
#68 = EDGE_LOOP ( 'NONE', ( #182, #122, #239, #48 ) ) ;
#69 = EDGE_CURVE ( 'NONE', #222, #147, #125, .T. ) ;
#70 = AXIS2_PLACEMENT_3D ( 'NONE', #197, #213, #55 ) ;
#71 = CC_DESIGN_PERSON_AND_ORGANIZATION_ASSIGNMENT ( #146, #144, ( #180 ) ) ;
#72 = APPROVAL_ROLE ( '' ) ;
#73 = DIRECTION ( 'NONE',  ( 0.000000000000000000, 0.000000000000000000, 1.000000000000000000 ) ) ;
#74 = EDGE_LOOP ( 'NONE', ( #127, #198, #206, #116 ) ) ;
#75 = APPROVAL ( #85, 'NEURÈENÝ' ) ;
#76 = CARTESIAN_POINT ( 'NONE',  ( -7.250000000000000000, 0.000000000000000000, 125.0000000000000000 ) ) ;
#77 = DIRECTION ( 'NONE',  ( -0.000000000000000000, -0.000000000000000000, -1.000000000000000000 ) ) ;
#78 = EDGE_LOOP ( 'NONE', ( #30, #113 ) ) ;
#79 = LOCAL_TIME ( 11, 41, 56.00000000000000000, #246 ) ;
#80 = CALENDAR_DATE ( 2023, 13, 2 ) ;
#81 = PRODUCT_DEFINITION_SHAPE ( 'NONE', 'NONE',  #129 ) ;
#82 = DIRECTION ( 'NONE',  ( -0.000000000000000000, -0.000000000000000000, -1.000000000000000000 ) ) ;
#83 = AXIS2_PLACEMENT_3D ( 'NONE', #42, #60, #181 ) ;
#84 = PLANE ( 'NONE',  #70 ) ;
#85 = APPROVAL_STATUS ( 'not_yet_approved' ) ;
#86 = ORIENTED_EDGE ( 'NONE', *, *, #169, .T. ) ;
#87 = AXIS2_PLACEMENT_3D ( 'NONE', #3, #21, #137 ) ;
#88 = CARTESIAN_POINT ( 'NONE',  ( 11.00000000000000000, 1.347111479062088405E-15, 0.000000000000000000 ) ) ;
#89 = CC_DESIGN_DATE_AND_TIME_ASSIGNMENT ( #224, #100, ( #129 ) ) ;
#90 = DATE_AND_TIME ( #57, #7 ) ;
#91 = ADVANCED_FACE ( 'NONE', ( #167 ), #84, .T. ) ;
#92 = DIRECTION ( 'NONE',  ( 0.000000000000000000, 0.000000000000000000, 1.000000000000000000 ) ) ;
#93 = DIRECTION ( 'NONE',  ( 1.000000000000000000, 0.000000000000000000, -0.000000000000000000 ) ) ;
#94 = EDGE_CURVE ( 'NONE', #222, #236, #215, .T. ) ;
#95 = LINE ( 'NONE', #254, #39 ) ;
#96 = ORIENTED_EDGE ( 'NONE', *, *, #134, .T. ) ;
#97 = CARTESIAN_POINT ( 'NONE',  ( 0.000000000000000000, 0.000000000000000000, 7.000000000000000000 ) ) ;
#98 = PLANE ( 'NONE',  #157 ) ;
#99 = CIRCLE ( 'NONE', #248, 11.00000000000000000 ) ;
#100 = DATE_TIME_ROLE ( 'creation_date' ) ;
#101 = DIRECTION ( 'NONE',  ( 0.000000000000000000, 0.000000000000000000, 1.000000000000000000 ) ) ;
#102 = DIRECTION ( 'NONE',  ( 0.000000000000000000, 0.000000000000000000, 1.000000000000000000 ) ) ;
#103 = PERSON_AND_ORGANIZATION_ROLE ( 'creator' ) ;
#104 = APPROVAL_PERSON_ORGANIZATION ( #51, #155, #208 ) ;
#105 = COORDINATED_UNIVERSAL_TIME_OFFSET ( 1, 0, .AHEAD. ) ;
#106 = APPLICATION_CONTEXT ( 'configuration controlled 3d designs of mechanical parts and assemblies' ) ;
#107 = CARTESIAN_POINT ( 'NONE',  ( 0.000000000000000000, 0.000000000000000000, 7.000000000000000000 ) ) ;
#108 = EDGE_CURVE ( 'NONE', #136, #54, #99, .T. ) ;
#109 = VECTOR ( 'NONE', #82, 1000.000000000000000 ) ;
#110 = DIRECTION ( 'NONE',  ( 1.000000000000000000, 0.000000000000000000, 0.000000000000000000 ) ) ;
#111 = CIRCLE ( 'NONE', #184, 11.00000000000000000 ) ;
#112 = CYLINDRICAL_SURFACE ( 'NONE', #87, 7.250000000000000000 ) ;
#113 = ORIENTED_EDGE ( 'NONE', *, *, #4, .F. ) ;
#114 = ADVANCED_FACE ( 'NONE', ( #132 ), #112, .T. ) ;
#115 = DIRECTION ( 'NONE',  ( 0.000000000000000000, 0.000000000000000000, 1.000000000000000000 ) ) ;
#116 = ORIENTED_EDGE ( 'NONE', *, *, #134, .F. ) ;
#117 = LOCAL_TIME ( 11, 41, 56.00000000000000000, #8 ) ;
#118 = ORIENTED_EDGE ( 'NONE', *, *, #52, .T. ) ;
#119 = APPLICATION_PROTOCOL_DEFINITION ( 'international standard', 'config_control_design', 1994, #106 ) ;
#120 = VERTEX_POINT ( 'NONE', #23 ) ;
#121 = DIRECTION ( 'NONE',  ( 1.000000000000000000, 0.000000000000000000, 0.000000000000000000 ) ) ;
#122 = ORIENTED_EDGE ( 'NONE', *, *, #94, .F. ) ;
#123 = MECHANICAL_CONTEXT ( 'NONE', #106, 'mechanical' ) ;
#124 = ADVANCED_FACE ( 'NONE', ( #174, #37 ), #233, .T. ) ;
#125 = LINE ( 'NONE', #11, #109 ) ;
#126 = APPROVAL_STATUS ( 'not_yet_approved' ) ;
#127 = ORIENTED_EDGE ( 'NONE', *, *, #166, .F. ) ;
#128 = CC_DESIGN_APPROVAL ( #145, ( #140 ) ) ;
#129 = PRODUCT_DEFINITION ( 'NEZNÁMÝ', '', #47, #58 ) ;
#130 = CARTESIAN_POINT ( 'NONE',  ( 0.000000000000000000, 0.000000000000000000, 0.000000000000000000 ) ) ;
#131 = CARTESIAN_POINT ( 'NONE',  ( 0.000000000000000000, 0.000000000000000000, 125.0000000000000000 ) ) ;
#132 = FACE_OUTER_BOUND ( 'NONE', #68, .T. ) ;
#133 = PERSON_AND_ORGANIZATION ( #156, #244 ) ;
#134 = EDGE_CURVE ( 'NONE', #136, #120, #95, .T. ) ;
#135 = APPLICATION_CONTEXT ( 'configuration controlled 3d designs of mechanical parts and assemblies' ) ;
#136 = VERTEX_POINT ( 'NONE', #64 ) ;
#137 = DIRECTION ( 'NONE',  ( -1.000000000000000000, 0.000000000000000000, 0.000000000000000000 ) ) ;
#138 = PERSON_AND_ORGANIZATION ( #156, #244 ) ;
#139 =( LENGTH_UNIT ( ) NAMED_UNIT ( * ) SI_UNIT ( .MILLI., .METRE. ) );
#140 = SECURITY_CLASSIFICATION ( '', '', #177 ) ;
#141 = DIRECTION ( 'NONE',  ( 1.000000000000000000, 0.000000000000000000, 0.000000000000000000 ) ) ;
#142 = ORIENTED_EDGE ( 'NONE', *, *, #214, .T. ) ;
#143 = LINE ( 'NONE', #221, #212 ) ;
#144 = PERSON_AND_ORGANIZATION_ROLE ( 'design_owner' ) ;
#145 = APPROVAL ( #232, 'NEURÈENÝ' ) ;
#146 = PERSON_AND_ORGANIZATION ( #156, #244 ) ;
#147 = VERTEX_POINT ( 'NONE', #218 ) ;
#148 = CALENDAR_DATE ( 2023, 13, 2 ) ;
#149 = APPROVAL_PERSON_ORGANIZATION ( #250, #145, #72 ) ;
#150 = DATE_TIME_ROLE ( 'classification_date' ) ;
#151 = PRODUCT_RELATED_PRODUCT_CATEGORY ( 'detail', '', ( #180 ) ) ;
#152 = DIRECTION ( 'NONE',  ( 1.000000000000000000, 0.000000000000000000, 0.000000000000000000 ) ) ;
#153 = COORDINATED_UNIVERSAL_TIME_OFFSET ( 1, 0, .AHEAD. ) ;
#154 = LOCAL_TIME ( 11, 41, 56.00000000000000000, #105 ) ;
#155 = APPROVAL ( #126, 'NEURÈENÝ' ) ;
#156 = PERSON ( 'NEURÈENÝ', 'NEURÈENÝ', 'NEURÈENÝ', ('NEURÈENÝ'), ('NEURÈENÝ'), ('NEURÈENÝ') ) ;
#157 = AXIS2_PLACEMENT_3D ( 'NONE', #1, #73, #93 ) ;
#158 = CARTESIAN_POINT ( 'NONE',  ( 0.000000000000000000, 0.000000000000000000, 125.0000000000000000 ) ) ;
#159 = ORIENTED_EDGE ( 'NONE', *, *, #108, .F. ) ;
#160 = PERSON_AND_ORGANIZATION_ROLE ( 'classification_officer' ) ;
#161 = DIRECTION ( 'NONE',  ( 0.000000000000000000, 0.000000000000000000, 1.000000000000000000 ) ) ;
#162 = FACE_OUTER_BOUND ( 'NONE', #78, .T. ) ;
#163 = EDGE_LOOP ( 'NONE', ( #185, #200, #142, #243 ) ) ;
#164 = CIRCLE ( 'NONE', #195, 7.250000000000000000 ) ;
#165 = EDGE_LOOP ( 'NONE', ( #53, #159, #96, #118 ) ) ;
#166 = EDGE_CURVE ( 'NONE', #54, #136, #111, .T. ) ;
#167 = FACE_OUTER_BOUND ( 'NONE', #38, .T. ) ;
#168 = APPROVAL_ROLE ( '' ) ;
#169 = EDGE_CURVE ( 'NONE', #236, #222, #59, .T. ) ;
#170 = APPROVAL_DATE_TIME ( #228, #75 ) ;
#171 = APPROVAL_DATE_TIME ( #194, #145 ) ;
#172 = ADVANCED_FACE ( 'NONE', ( #18 ), #242, .T. ) ;
#173 = CARTESIAN_POINT ( 'NONE',  ( 0.000000000000000000, 0.000000000000000000, 125.0000000000000000 ) ) ;
#174 = FACE_BOUND ( 'NONE', #176, .T. ) ;
#175 = AXIS2_PLACEMENT_3D ( 'NONE', #107, #190, #188 ) ;
#176 = EDGE_LOOP ( 'NONE', ( #22, #43 ) ) ;
#177 = SECURITY_CLASSIFICATION_LEVEL ( 'unclassified' ) ;
#178 = DIRECTION ( 'NONE',  ( -0.000000000000000000, -0.000000000000000000, -1.000000000000000000 ) ) ;
#179 = DIRECTION ( 'NONE',  ( 1.000000000000000000, 0.000000000000000000, -0.000000000000000000 ) ) ;
#180 = PRODUCT ( '5413', '5413', '', ( #123 ) ) ;
#181 = DIRECTION ( 'NONE',  ( -1.000000000000000000, 0.000000000000000000, 0.000000000000000000 ) ) ;
#182 = ORIENTED_EDGE ( 'NONE', *, *, #203, .F. ) ;
#183 = CIRCLE ( 'NONE', #211, 11.00000000000000000 ) ;
#184 = AXIS2_PLACEMENT_3D ( 'NONE', #240, #24, #141 ) ;
#185 = ORIENTED_EDGE ( 'NONE', *, *, #169, .F. ) ;
#186 = CARTESIAN_POINT ( 'NONE',  ( 0.000000000000000000, 0.000000000000000000, 0.000000000000000000 ) ) ;
#187 = CARTESIAN_POINT ( 'NONE',  ( 11.00000000000000000, 1.347111479062088405E-15, 7.000000000000000000 ) ) ;
#188 = DIRECTION ( 'NONE',  ( -1.000000000000000000, 0.000000000000000000, 0.000000000000000000 ) ) ;
#189 = CALENDAR_DATE ( 2023, 13, 2 ) ;
#190 = DIRECTION ( 'NONE',  ( -0.000000000000000000, -0.000000000000000000, -1.000000000000000000 ) ) ;
#191 = DIRECTION ( 'NONE',  ( 0.000000000000000000, 0.000000000000000000, 1.000000000000000000 ) ) ;
#192 = CC_DESIGN_DATE_AND_TIME_ASSIGNMENT ( #90, #150, ( #140 ) ) ;
#193 = PERSON_AND_ORGANIZATION ( #156, #244 ) ;
#194 = DATE_AND_TIME ( #216, #32 ) ;
#195 = AXIS2_PLACEMENT_3D ( 'NONE', #27, #101, #9 ) ;
#196 = ADVANCED_FACE ( 'NONE', ( #162 ), #98, .F. ) ;
#197 = CARTESIAN_POINT ( 'NONE',  ( 0.000000000000000000, 0.000000000000000000, 125.0000000000000000 ) ) ;
#198 = ORIENTED_EDGE ( 'NONE', *, *, #20, .T. ) ;
#199 =( NAMED_UNIT ( * ) PLANE_ANGLE_UNIT ( ) SI_UNIT ( $, .RADIAN. ) );
#200 = ORIENTED_EDGE ( 'NONE', *, *, #203, .T. ) ;
#201 =( NAMED_UNIT ( * ) SI_UNIT ( $, .STERADIAN. ) SOLID_ANGLE_UNIT ( ) );
#202 = DIRECTION ( 'NONE',  ( -1.000000000000000000, 0.000000000000000000, 0.000000000000000000 ) ) ;
#203 = EDGE_CURVE ( 'NONE', #236, #247, #143, .T. ) ;
#204 = AXIS2_PLACEMENT_3D ( 'NONE', #97, #115, #179 ) ;
#205 = DATE_AND_TIME ( #80, #117 ) ;
#206 = ORIENTED_EDGE ( 'NONE', *, *, #4, .T. ) ;
#207 = DIRECTION ( 'NONE',  ( -0.000000000000000000, -0.000000000000000000, -1.000000000000000000 ) ) ;
#208 = APPROVAL_ROLE ( '' ) ;
#209 = CC_DESIGN_SECURITY_CLASSIFICATION ( #140, ( #47 ) ) ;
#210 = DIRECTION ( 'NONE',  ( 0.000000000000000000, 0.000000000000000000, 1.000000000000000000 ) ) ;
#211 = AXIS2_PLACEMENT_3D ( 'NONE', #29, #102, #50 ) ;
#212 = VECTOR ( 'NONE', #40, 1000.000000000000000 ) ;
#213 = DIRECTION ( 'NONE',  ( 0.000000000000000000, 0.000000000000000000, 1.000000000000000000 ) ) ;
#214 = EDGE_CURVE ( 'NONE', #247, #147, #26, .T. ) ;
#215 = CIRCLE ( 'NONE', #249, 7.250000000000000000 ) ;
#216 = CALENDAR_DATE ( 2023, 13, 2 ) ;
#217 = CARTESIAN_POINT ( 'NONE',  ( 7.250000000000000000, 8.878689293818310074E-16, 7.000000000000000000 ) ) ;
#218 = CARTESIAN_POINT ( 'NONE',  ( -7.250000000000000000, 0.000000000000000000, 7.000000000000000000 ) ) ;
#219 = DIRECTION ( 'NONE',  ( 1.000000000000000000, 0.000000000000000000, 0.000000000000000000 ) ) ;
#220 = AXIS2_PLACEMENT_3D ( 'NONE', #186, #66, #49 ) ;
#221 = CARTESIAN_POINT ( 'NONE',  ( 7.250000000000000000, 8.878689293818310074E-16, 125.0000000000000000 ) ) ;
#222 = VERTEX_POINT ( 'NONE', #76 ) ;
#223 = CYLINDRICAL_SURFACE ( 'NONE', #83, 11.00000000000000000 ) ;
#224 = DATE_AND_TIME ( #189, #154 ) ;
#225 = ADVANCED_FACE ( 'NONE', ( #238 ), #223, .T. ) ;
#226 = LINE ( 'NONE', #13, #229 ) ;
#227 = APPLICATION_PROTOCOL_DEFINITION ( 'international standard', 'config_control_design', 1994, #135 ) ;
#228 = DATE_AND_TIME ( #148, #79 ) ;
#229 = VECTOR ( 'NONE', #207, 1000.000000000000000 ) ;
#230 = AXIS2_PLACEMENT_3D ( 'NONE', #158, #178, #202 ) ;
#231 =( GEOMETRIC_REPRESENTATION_CONTEXT ( 3 ) GLOBAL_UNCERTAINTY_ASSIGNED_CONTEXT ( ( #36 ) ) GLOBAL_UNIT_ASSIGNED_CONTEXT ( ( #139, #199, #201 ) ) REPRESENTATION_CONTEXT ( 'NONE', 'WORKASPACE' ) );
#232 = APPROVAL_STATUS ( 'not_yet_approved' ) ;
#233 = PLANE ( 'NONE',  #204 ) ;
#234 = CC_DESIGN_PERSON_AND_ORGANIZATION_ASSIGNMENT ( #138, #160, ( #140 ) ) ;
#235 = CARTESIAN_POINT ( 'NONE',  ( 0.000000000000000000, 0.000000000000000000, 7.000000000000000000 ) ) ;
#236 = VERTEX_POINT ( 'NONE', #62 ) ;
#237 = COORDINATED_UNIVERSAL_TIME_OFFSET ( 1, 0, .AHEAD. ) ;
#238 = FACE_OUTER_BOUND ( 'NONE', #165, .T. ) ;
#239 = ORIENTED_EDGE ( 'NONE', *, *, #69, .T. ) ;
#240 = CARTESIAN_POINT ( 'NONE',  ( 0.000000000000000000, 0.000000000000000000, 7.000000000000000000 ) ) ;
#241 = CLOSED_SHELL ( 'NONE', ( #172, #10, #225, #124, #196, #114, #91 ) ) ;
#242 = CYLINDRICAL_SURFACE ( 'NONE', #230, 7.250000000000000000 ) ;
#243 = ORIENTED_EDGE ( 'NONE', *, *, #69, .F. ) ;
#244 = ORGANIZATION ( 'NEURÈENÝ', 'NEURÈENÝ', '' ) ;
#245 = FACE_OUTER_BOUND ( 'NONE', #74, .T. ) ;
#246 = COORDINATED_UNIVERSAL_TIME_OFFSET ( 1, 0, .AHEAD. ) ;
#247 = VERTEX_POINT ( 'NONE', #217 ) ;
#248 = AXIS2_PLACEMENT_3D ( 'NONE', #16, #92, #152 ) ;
#249 = AXIS2_PLACEMENT_3D ( 'NONE', #131, #191, #110 ) ;
#250 = PERSON_AND_ORGANIZATION ( #156, #244 ) ;
#251 = PERSON_AND_ORGANIZATION_ROLE ( 'creator' ) ;
#252 = CC_DESIGN_APPROVAL ( #75, ( #47 ) ) ;
#253 = SHAPE_DEFINITION_REPRESENTATION ( #81, #34 ) ;
#254 = CARTESIAN_POINT ( 'NONE',  ( -11.00000000000000000, 0.000000000000000000, 7.000000000000000000 ) ) ;
#255 = PERSON_AND_ORGANIZATION_ROLE ( 'design_supplier' ) ;
ENDSEC;
END-ISO-10303-21;
