ISO-10303-21;
HEADER;
FILE_DESCRIPTION (( 'STEP AP203' ),
    '1' );
FILE_NAME ('d690.STEP',
    '2022-07-07T17:04:04',
    ( '' ),
    ( '' ),
    'SwSTEP 2.0',
    'SolidWorks 2019',
    '' );
FILE_SCHEMA (( 'CONFIG_CONTROL_DESIGN' ));
ENDSEC;

DATA;
#1 = LOCAL_TIME ( 19, 4, 4.000000000000000000, #32 ) ;
#2 = EDGE_CURVE ( 'NONE', #114, #236, #4, .T. ) ;
#3 = DIRECTION ( 'NONE',  ( 1.000000000000000000, 0.000000000000000000, 0.000000000000000000 ) ) ;
#4 = CIRCLE ( 'NONE', #69, 13.00000000000000178 ) ;
#5 = CARTESIAN_POINT ( 'NONE',  ( 0.000000000000000000, 0.000000000000000000, 168.0000000000000000 ) ) ;
#6 = PLANE ( 'NONE',  #230 ) ;
#7 = PERSON_AND_ORGANIZATION ( #245, #126 ) ;
#8 = FACE_OUTER_BOUND ( 'NONE', #117, .T. ) ;
#9 = EDGE_CURVE ( 'NONE', #149, #154, #214, .T. ) ;
#10 = APPROVAL_STATUS ( 'not_yet_approved' ) ;
#11 = CARTESIAN_POINT ( 'NONE',  ( 0.000000000000000000, 0.000000000000000000, 168.0000000000000000 ) ) ;
#12 = PRODUCT_DEFINITION_SHAPE ( 'NONE', 'NONE',  #111 ) ;
#13 = LOCAL_TIME ( 19, 4, 4.000000000000000000, #132 ) ;
#14 = EDGE_CURVE ( 'NONE', #196, #195, #95, .T. ) ;
#15 = ORIENTED_EDGE ( 'NONE', *, *, #59, .F. ) ;
#16 = CALENDAR_DATE ( 2022, 7, 7 ) ;
#17 = DIRECTION ( 'NONE',  ( 1.000000000000000000, 0.000000000000000000, 0.000000000000000000 ) ) ;
#18 = CALENDAR_DATE ( 2022, 7, 7 ) ;
#19 = EDGE_CURVE ( 'NONE', #154, #114, #131, .T. ) ;
#20 = ORIENTED_EDGE ( 'NONE', *, *, #9, .T. ) ;
#21 = AXIS2_PLACEMENT_3D ( 'NONE', #182, #221, #178 ) ;
#22 = DIRECTION ( 'NONE',  ( 0.000000000000000000, 0.000000000000000000, 1.000000000000000000 ) ) ;
#23 = DIRECTION ( 'NONE',  ( 1.000000000000000000, 0.000000000000000000, -0.000000000000000000 ) ) ;
#24 = DATE_AND_TIME ( #200, #166 ) ;
#25 = VECTOR ( 'NONE', #212, 1000.000000000000000 ) ;
#26 = DIRECTION ( 'NONE',  ( -0.000000000000000000, -0.000000000000000000, -1.000000000000000000 ) ) ;
#27 = AXIS2_PLACEMENT_3D ( 'NONE', #11, #226, #23 ) ;
#28 = DIRECTION ( 'NONE',  ( 0.000000000000000000, 0.000000000000000000, 1.000000000000000000 ) ) ;
#29 = FACE_BOUND ( 'NONE', #191, .T. ) ;
#30 = AXIS2_PLACEMENT_3D ( 'NONE', #58, #162, #63 ) ;
#31 = ORIENTED_EDGE ( 'NONE', *, *, #59, .T. ) ;
#32 = COORDINATED_UNIVERSAL_TIME_OFFSET ( 1, 0, .AHEAD. ) ;
#33 = ORIENTED_EDGE ( 'NONE', *, *, #167, .T. ) ;
#34 = PERSON_AND_ORGANIZATION_ROLE ( 'classification_officer' ) ;
#35 = CARTESIAN_POINT ( 'NONE',  ( 0.000000000000000000, 0.000000000000000000, 168.0000000000000000 ) ) ;
#36 = EDGE_LOOP ( 'NONE', ( #71, #168, #210, #238 ) ) ;
#37 = DIRECTION ( 'NONE',  ( 0.000000000000000000, 0.000000000000000000, 1.000000000000000000 ) ) ;
#38 = CC_DESIGN_PERSON_AND_ORGANIZATION_ASSIGNMENT ( #91, #130, ( #217 ) ) ;
#39 = CARTESIAN_POINT ( 'NONE',  ( 13.00000000000000178, 1.592040838891559293E-15, 8.000000000000000000 ) ) ;
#40 = APPROVAL ( #10, 'NEURÈENÝ' ) ;
#41 = PERSON_AND_ORGANIZATION ( #245, #126 ) ;
#42 = LINE ( 'NONE', #99, #224 ) ;
#43 = CARTESIAN_POINT ( 'NONE',  ( 13.00000000000000178, 1.592040838891559293E-15, 0.000000000000000000 ) ) ;
#44 = CARTESIAN_POINT ( 'NONE',  ( 13.00000000000000178, 1.592040838891559293E-15, 8.000000000000000000 ) ) ;
#45 = DIRECTION ( 'NONE',  ( -1.000000000000000000, 0.000000000000000000, 0.000000000000000000 ) ) ;
#46 = SECURITY_CLASSIFICATION ( '', '', #192 ) ;
#47 = CC_DESIGN_DATE_AND_TIME_ASSIGNMENT ( #253, #171, ( #46 ) ) ;
#48 = APPROVAL_PERSON_ORGANIZATION ( #74, #205, #153 ) ;
#49 = EDGE_LOOP ( 'NONE', ( #250, #31, #136, #75 ) ) ;
#50 = PERSON_AND_ORGANIZATION ( #245, #126 ) ;
#51 = DIRECTION ( 'NONE',  ( 1.000000000000000000, 0.000000000000000000, 0.000000000000000000 ) ) ;
#52 = APPROVAL_DATE_TIME ( #89, #205 ) ;
#53 = DIRECTION ( 'NONE',  ( 1.000000000000000000, 0.000000000000000000, 0.000000000000000000 ) ) ;
#54 = AXIS2_PLACEMENT_3D ( 'NONE', #35, #37, #202 ) ;
#55 = ORIENTED_EDGE ( 'NONE', *, *, #14, .T. ) ;
#56 = EDGE_CURVE ( 'NONE', #195, #196, #201, .T. ) ;
#57 = DESIGN_CONTEXT ( 'detailed design', #137, 'design' ) ;
#58 = CARTESIAN_POINT ( 'NONE',  ( 0.000000000000000000, 0.000000000000000000, 168.0000000000000000 ) ) ;
#59 = EDGE_CURVE ( 'NONE', #196, #129, #139, .T. ) ;
#60 = CARTESIAN_POINT ( 'NONE',  ( 10.00000000000000178, 1.224646799147353454E-15, 8.000000000000000000 ) ) ;
#61 = CARTESIAN_POINT ( 'NONE',  ( 0.000000000000000000, 0.000000000000000000, 8.000000000000000000 ) ) ;
#62 = DATE_AND_TIME ( #143, #209 ) ;
#63 = DIRECTION ( 'NONE',  ( -1.000000000000000000, 0.000000000000000000, 0.000000000000000000 ) ) ;
#64 = CARTESIAN_POINT ( 'NONE',  ( 0.000000000000000000, 0.000000000000000000, 8.000000000000000000 ) ) ;
#65 = DIRECTION ( 'NONE',  ( 0.000000000000000000, 0.000000000000000000, 1.000000000000000000 ) ) ;
#66 = CIRCLE ( 'NONE', #237, 10.00000000000000178 ) ;
#67 = FACE_OUTER_BOUND ( 'NONE', #128, .T. ) ;
#68 = AXIS2_PLACEMENT_3D ( 'NONE', #176, #220, #3 ) ;
#69 = AXIS2_PLACEMENT_3D ( 'NONE', #207, #90, #53 ) ;
#70 = PRODUCT ( 'd690', 'd690', '', ( #157 ) ) ;
#71 = ORIENTED_EDGE ( 'NONE', *, *, #186, .F. ) ;
#72 = AXIS2_PLACEMENT_3D ( 'NONE', #64, #185, #124 ) ;
#73 = ORIENTED_EDGE ( 'NONE', *, *, #108, .T. ) ;
#74 = PERSON_AND_ORGANIZATION ( #245, #126 ) ;
#75 = ORIENTED_EDGE ( 'NONE', *, *, #108, .F. ) ;
#76 = ORIENTED_EDGE ( 'NONE', *, *, #142, .T. ) ;
#77 = EDGE_CURVE ( 'NONE', #129, #109, #66, .T. ) ;
#78 = DIRECTION ( 'NONE',  ( 1.000000000000000000, 0.000000000000000000, 0.000000000000000000 ) ) ;
#79 =( GEOMETRIC_REPRESENTATION_CONTEXT ( 3 ) GLOBAL_UNCERTAINTY_ASSIGNED_CONTEXT ( ( #96 ) ) GLOBAL_UNIT_ASSIGNED_CONTEXT ( ( #165, #163, #246 ) ) REPRESENTATION_CONTEXT ( 'NONE', 'WORKASPACE' ) );
#80 = LINE ( 'NONE', #44, #135 ) ;
#81 = PERSON_AND_ORGANIZATION_ROLE ( 'creator' ) ;
#82 = CYLINDRICAL_SURFACE ( 'NONE', #30, 10.00000000000000178 ) ;
#83 = FACE_OUTER_BOUND ( 'NONE', #155, .T. ) ;
#84 = APPROVAL_PERSON_ORGANIZATION ( #183, #40, #194 ) ;
#85 = ADVANCED_FACE ( 'NONE', ( #243 ), #140, .T. ) ;
#86 = VECTOR ( 'NONE', #118, 1000.000000000000000 ) ;
#87 = APPLICATION_CONTEXT ( 'configuration controlled 3d designs of mechanical parts and assemblies' ) ;
#88 = ORIENTED_EDGE ( 'NONE', *, *, #56, .F. ) ;
#89 = DATE_AND_TIME ( #16, #156 ) ;
#90 = DIRECTION ( 'NONE',  ( 0.000000000000000000, 0.000000000000000000, 1.000000000000000000 ) ) ;
#91 = PERSON_AND_ORGANIZATION ( #245, #126 ) ;
#92 = ORIENTED_EDGE ( 'NONE', *, *, #56, .T. ) ;
#93 = EDGE_LOOP ( 'NONE', ( #193, #112 ) ) ;
#94 = CC_DESIGN_PERSON_AND_ORGANIZATION_ASSIGNMENT ( #50, #213, ( #217 ) ) ;
#95 = CIRCLE ( 'NONE', #101, 10.00000000000000178 ) ;
#96 = UNCERTAINTY_MEASURE_WITH_UNIT (LENGTH_MEASURE( 1.000000000000000082E-05 ), #165, 'distance_accuracy_value', 'NONE');
#97 = CC_DESIGN_SECURITY_CLASSIFICATION ( #46, ( #217 ) ) ;
#98 = PERSON_AND_ORGANIZATION ( #245, #126 ) ;
#99 = CARTESIAN_POINT ( 'NONE',  ( -10.00000000000000178, 0.000000000000000000, 168.0000000000000000 ) ) ;
#100 = CARTESIAN_POINT ( 'NONE',  ( 0.000000000000000000, 0.000000000000000000, 8.000000000000000000 ) ) ;
#101 = AXIS2_PLACEMENT_3D ( 'NONE', #151, #234, #51 ) ;
#102 = APPLICATION_PROTOCOL_DEFINITION ( 'international standard', 'config_control_design', 1994, #137 ) ;
#103 = CARTESIAN_POINT ( 'NONE',  ( -10.00000000000000178, 0.000000000000000000, 8.000000000000000000 ) ) ;
#104 = CC_DESIGN_APPROVAL ( #40, ( #217 ) ) ;
#105 = CARTESIAN_POINT ( 'NONE',  ( 0.000000000000000000, 0.000000000000000000, 0.000000000000000000 ) ) ;
#106 = PERSON_AND_ORGANIZATION_ROLE ( 'design_owner' ) ;
#107 = CARTESIAN_POINT ( 'NONE',  ( 0.000000000000000000, 0.000000000000000000, 8.000000000000000000 ) ) ;
#108 = EDGE_CURVE ( 'NONE', #195, #109, #42, .T. ) ;
#109 = VERTEX_POINT ( 'NONE', #103 ) ;
#110 = SHAPE_DEFINITION_REPRESENTATION ( #12, #169 ) ;
#111 = PRODUCT_DEFINITION ( 'NEZNÁMÝ', '', #217, #57 ) ;
#112 = ORIENTED_EDGE ( 'NONE', *, *, #142, .F. ) ;
#113 = APPROVAL_STATUS ( 'not_yet_approved' ) ;
#114 = VERTEX_POINT ( 'NONE', #158 ) ;
#115 = CC_DESIGN_PERSON_AND_ORGANIZATION_ASSIGNMENT ( #211, #34, ( #46 ) ) ;
#116 = CIRCLE ( 'NONE', #216, 10.00000000000000178 ) ;
#117 = EDGE_LOOP ( 'NONE', ( #15, #88, #73, #174 ) ) ;
#118 = DIRECTION ( 'NONE',  ( -0.000000000000000000, -0.000000000000000000, -1.000000000000000000 ) ) ;
#119 = DIRECTION ( 'NONE',  ( 1.000000000000000000, 0.000000000000000000, -0.000000000000000000 ) ) ;
#120 = CARTESIAN_POINT ( 'NONE',  ( 10.00000000000000178, 1.224646799147353454E-15, 168.0000000000000000 ) ) ;
#121 = CYLINDRICAL_SURFACE ( 'NONE', #251, 13.00000000000000178 ) ;
#122 = CARTESIAN_POINT ( 'NONE',  ( -10.00000000000000178, 0.000000000000000000, 168.0000000000000000 ) ) ;
#123 = APPLICATION_PROTOCOL_DEFINITION ( 'international standard', 'config_control_design', 1994, #87 ) ;
#124 = DIRECTION ( 'NONE',  ( 1.000000000000000000, 0.000000000000000000, -0.000000000000000000 ) ) ;
#125 = CARTESIAN_POINT ( 'NONE',  ( -13.00000000000000178, 0.000000000000000000, 8.000000000000000000 ) ) ;
#126 = ORGANIZATION ( 'NEURÈENÝ', 'NEURÈENÝ', '' ) ;
#127 = CIRCLE ( 'NONE', #21, 13.00000000000000178 ) ;
#128 = EDGE_LOOP ( 'NONE', ( #33, #20 ) ) ;
#129 = VERTEX_POINT ( 'NONE', #60 ) ;
#130 = PERSON_AND_ORGANIZATION_ROLE ( 'design_supplier' ) ;
#131 = LINE ( 'NONE', #215, #25 ) ;
#132 = COORDINATED_UNIVERSAL_TIME_OFFSET ( 1, 0, .AHEAD. ) ;
#133 = CC_DESIGN_DATE_AND_TIME_ASSIGNMENT ( #62, #204, ( #111 ) ) ;
#134 = DIRECTION ( 'NONE',  ( 0.000000000000000000, 0.000000000000000000, 1.000000000000000000 ) ) ;
#135 = VECTOR ( 'NONE', #164, 1000.000000000000000 ) ;
#136 = ORIENTED_EDGE ( 'NONE', *, *, #77, .T. ) ;
#137 = APPLICATION_CONTEXT ( 'configuration controlled 3d designs of mechanical parts and assemblies' ) ;
#138 = CC_DESIGN_APPROVAL ( #188, ( #111 ) ) ;
#139 = LINE ( 'NONE', #120, #86 ) ;
#140 = CYLINDRICAL_SURFACE ( 'NONE', #189, 10.00000000000000178 ) ;
#141 = DIRECTION ( 'NONE',  ( 1.000000000000000000, 0.000000000000000000, 0.000000000000000000 ) ) ;
#142 = EDGE_CURVE ( 'NONE', #236, #114, #127, .T. ) ;
#143 = CALENDAR_DATE ( 2022, 7, 7 ) ;
#144 = PLANE ( 'NONE',  #72 ) ;
#145 = DIRECTION ( 'NONE',  ( -0.000000000000000000, -0.000000000000000000, -1.000000000000000000 ) ) ;
#146 = CLOSED_SHELL ( 'NONE', ( #85, #229, #231, #249, #159, #148, #227 ) ) ;
#147 = DIRECTION ( 'NONE',  ( -1.000000000000000000, 0.000000000000000000, 0.000000000000000000 ) ) ;
#148 = ADVANCED_FACE ( 'NONE', ( #8 ), #82, .T. ) ;
#149 = VERTEX_POINT ( 'NONE', #39 ) ;
#150 = DATE_AND_TIME ( #18, #13 ) ;
#151 = CARTESIAN_POINT ( 'NONE',  ( 0.000000000000000000, 0.000000000000000000, 168.0000000000000000 ) ) ;
#152 = CC_DESIGN_PERSON_AND_ORGANIZATION_ASSIGNMENT ( #41, #106, ( #70 ) ) ;
#153 = APPROVAL_ROLE ( '' ) ;
#154 = VERTEX_POINT ( 'NONE', #125 ) ;
#155 = EDGE_LOOP ( 'NONE', ( #255, #232, #76, #218 ) ) ;
#156 = LOCAL_TIME ( 19, 4, 4.000000000000000000, #208 ) ;
#157 = MECHANICAL_CONTEXT ( 'NONE', #87, 'mechanical' ) ;
#158 = CARTESIAN_POINT ( 'NONE',  ( -13.00000000000000178, 0.000000000000000000, 0.000000000000000000 ) ) ;
#159 = ADVANCED_FACE ( 'NONE', ( #241 ), #6, .F. ) ;
#160 = DIRECTION ( 'NONE',  ( 0.000000000000000000, 0.000000000000000000, 1.000000000000000000 ) ) ;
#161 = COORDINATED_UNIVERSAL_TIME_OFFSET ( 1, 0, .AHEAD. ) ;
#162 = DIRECTION ( 'NONE',  ( -0.000000000000000000, -0.000000000000000000, -1.000000000000000000 ) ) ;
#163 =( NAMED_UNIT ( * ) PLANE_ANGLE_UNIT ( ) SI_UNIT ( $, .RADIAN. ) );
#164 = DIRECTION ( 'NONE',  ( -0.000000000000000000, -0.000000000000000000, -1.000000000000000000 ) ) ;
#165 =( LENGTH_UNIT ( ) NAMED_UNIT ( * ) SI_UNIT ( .MILLI., .METRE. ) );
#166 = LOCAL_TIME ( 19, 4, 4.000000000000000000, #161 ) ;
#167 = EDGE_CURVE ( 'NONE', #154, #149, #247, .T. ) ;
#168 = ORIENTED_EDGE ( 'NONE', *, *, #167, .F. ) ;
#169 = ADVANCED_BREP_SHAPE_REPRESENTATION ( 'd690', ( #197, #68 ), #79 ) ;
#170 = CARTESIAN_POINT ( 'NONE',  ( 0.000000000000000000, 0.000000000000000000, 8.000000000000000000 ) ) ;
#171 = DATE_TIME_ROLE ( 'classification_date' ) ;
#172 = APPROVAL_PERSON_ORGANIZATION ( #98, #188, #223 ) ;
#173 = ORIENTED_EDGE ( 'NONE', *, *, #175, .F. ) ;
#174 = ORIENTED_EDGE ( 'NONE', *, *, #175, .T. ) ;
#175 = EDGE_CURVE ( 'NONE', #109, #129, #116, .T. ) ;
#176 = CARTESIAN_POINT ( 'NONE',  ( 0.000000000000000000, 0.000000000000000000, 0.000000000000000000 ) ) ;
#177 = CC_DESIGN_PERSON_AND_ORGANIZATION_ASSIGNMENT ( #7, #81, ( #111 ) ) ;
#178 = DIRECTION ( 'NONE',  ( 1.000000000000000000, 0.000000000000000000, 0.000000000000000000 ) ) ;
#179 = CYLINDRICAL_SURFACE ( 'NONE', #187, 13.00000000000000178 ) ;
#180 = APPROVAL_DATE_TIME ( #24, #188 ) ;
#181 = AXIS2_PLACEMENT_3D ( 'NONE', #100, #160, #222 ) ;
#182 = CARTESIAN_POINT ( 'NONE',  ( 0.000000000000000000, 0.000000000000000000, 0.000000000000000000 ) ) ;
#183 = PERSON_AND_ORGANIZATION ( #245, #126 ) ;
#184 = PLANE ( 'NONE',  #27 ) ;
#185 = DIRECTION ( 'NONE',  ( 0.000000000000000000, 0.000000000000000000, 1.000000000000000000 ) ) ;
#186 = EDGE_CURVE ( 'NONE', #149, #236, #80, .T. ) ;
#187 = AXIS2_PLACEMENT_3D ( 'NONE', #244, #145, #45 ) ;
#188 = APPROVAL ( #239, 'NEURÈENÝ' ) ;
#189 = AXIS2_PLACEMENT_3D ( 'NONE', #5, #26, #198 ) ;
#190 = CC_DESIGN_APPROVAL ( #205, ( #46 ) ) ;
#191 = EDGE_LOOP ( 'NONE', ( #173, #254 ) ) ;
#192 = SECURITY_CLASSIFICATION_LEVEL ( 'unclassified' ) ;
#193 = ORIENTED_EDGE ( 'NONE', *, *, #2, .F. ) ;
#194 = APPROVAL_ROLE ( '' ) ;
#195 = VERTEX_POINT ( 'NONE', #122 ) ;
#196 = VERTEX_POINT ( 'NONE', #199 ) ;
#197 = MANIFOLD_SOLID_BREP ( 'Pøidat vysunutím3', #146 ) ;
#198 = DIRECTION ( 'NONE',  ( -1.000000000000000000, 0.000000000000000000, 0.000000000000000000 ) ) ;
#199 = CARTESIAN_POINT ( 'NONE',  ( 10.00000000000000178, 1.224646799147353454E-15, 168.0000000000000000 ) ) ;
#200 = CALENDAR_DATE ( 2022, 7, 7 ) ;
#201 = CIRCLE ( 'NONE', #54, 10.00000000000000178 ) ;
#202 = DIRECTION ( 'NONE',  ( 1.000000000000000000, 0.000000000000000000, 0.000000000000000000 ) ) ;
#203 = FACE_OUTER_BOUND ( 'NONE', #252, .T. ) ;
#204 = DATE_TIME_ROLE ( 'creation_date' ) ;
#205 = APPROVAL ( #113, 'NEURÈENÝ' ) ;
#206 = PRODUCT_RELATED_PRODUCT_CATEGORY ( 'detail', '', ( #70 ) ) ;
#207 = CARTESIAN_POINT ( 'NONE',  ( 0.000000000000000000, 0.000000000000000000, 0.000000000000000000 ) ) ;
#208 = COORDINATED_UNIVERSAL_TIME_OFFSET ( 1, 0, .AHEAD. ) ;
#209 = LOCAL_TIME ( 19, 4, 4.000000000000000000, #242 ) ;
#210 = ORIENTED_EDGE ( 'NONE', *, *, #19, .T. ) ;
#211 = PERSON_AND_ORGANIZATION ( #245, #126 ) ;
#212 = DIRECTION ( 'NONE',  ( -0.000000000000000000, -0.000000000000000000, -1.000000000000000000 ) ) ;
#213 = PERSON_AND_ORGANIZATION_ROLE ( 'creator' ) ;
#214 = CIRCLE ( 'NONE', #248, 13.00000000000000178 ) ;
#215 = CARTESIAN_POINT ( 'NONE',  ( -13.00000000000000178, 0.000000000000000000, 8.000000000000000000 ) ) ;
#216 = AXIS2_PLACEMENT_3D ( 'NONE', #61, #28, #141 ) ;
#217 = PRODUCT_DEFINITION_FORMATION_WITH_SPECIFIED_SOURCE ( 'LIBOVOLNÝ', '', #70, .NOT_KNOWN. ) ;
#218 = ORIENTED_EDGE ( 'NONE', *, *, #19, .F. ) ;
#219 = CARTESIAN_POINT ( 'NONE',  ( 0.000000000000000000, 0.000000000000000000, 8.000000000000000000 ) ) ;
#220 = DIRECTION ( 'NONE',  ( 0.000000000000000000, 0.000000000000000000, 1.000000000000000000 ) ) ;
#221 = DIRECTION ( 'NONE',  ( 0.000000000000000000, 0.000000000000000000, 1.000000000000000000 ) ) ;
#222 = DIRECTION ( 'NONE',  ( 1.000000000000000000, 0.000000000000000000, 0.000000000000000000 ) ) ;
#223 = APPROVAL_ROLE ( '' ) ;
#224 = VECTOR ( 'NONE', #240, 1000.000000000000000 ) ;
#225 = DIRECTION ( 'NONE',  ( -0.000000000000000000, -0.000000000000000000, -1.000000000000000000 ) ) ;
#226 = DIRECTION ( 'NONE',  ( 0.000000000000000000, 0.000000000000000000, 1.000000000000000000 ) ) ;
#227 = ADVANCED_FACE ( 'NONE', ( #203 ), #184, .T. ) ;
#228 = FACE_OUTER_BOUND ( 'NONE', #36, .T. ) ;
#229 = ADVANCED_FACE ( 'NONE', ( #83 ), #179, .T. ) ;
#230 = AXIS2_PLACEMENT_3D ( 'NONE', #105, #65, #119 ) ;
#231 = ADVANCED_FACE ( 'NONE', ( #228 ), #121, .T. ) ;
#232 = ORIENTED_EDGE ( 'NONE', *, *, #186, .T. ) ;
#233 = APPROVAL_DATE_TIME ( #150, #40 ) ;
#234 = DIRECTION ( 'NONE',  ( 0.000000000000000000, 0.000000000000000000, 1.000000000000000000 ) ) ;
#235 = CALENDAR_DATE ( 2022, 7, 7 ) ;
#236 = VERTEX_POINT ( 'NONE', #43 ) ;
#237 = AXIS2_PLACEMENT_3D ( 'NONE', #219, #22, #78 ) ;
#238 = ORIENTED_EDGE ( 'NONE', *, *, #2, .T. ) ;
#239 = APPROVAL_STATUS ( 'not_yet_approved' ) ;
#240 = DIRECTION ( 'NONE',  ( -0.000000000000000000, -0.000000000000000000, -1.000000000000000000 ) ) ;
#241 = FACE_OUTER_BOUND ( 'NONE', #93, .T. ) ;
#242 = COORDINATED_UNIVERSAL_TIME_OFFSET ( 1, 0, .AHEAD. ) ;
#243 = FACE_OUTER_BOUND ( 'NONE', #49, .T. ) ;
#244 = CARTESIAN_POINT ( 'NONE',  ( 0.000000000000000000, 0.000000000000000000, 8.000000000000000000 ) ) ;
#245 = PERSON ( 'NEURÈENÝ', 'NEURÈENÝ', 'NEURÈENÝ', ('NEURÈENÝ'), ('NEURÈENÝ'), ('NEURÈENÝ') ) ;
#246 =( NAMED_UNIT ( * ) SI_UNIT ( $, .STERADIAN. ) SOLID_ANGLE_UNIT ( ) );
#247 = CIRCLE ( 'NONE', #181, 13.00000000000000178 ) ;
#248 = AXIS2_PLACEMENT_3D ( 'NONE', #170, #134, #17 ) ;
#249 = ADVANCED_FACE ( 'NONE', ( #29, #67 ), #144, .T. ) ;
#250 = ORIENTED_EDGE ( 'NONE', *, *, #14, .F. ) ;
#251 = AXIS2_PLACEMENT_3D ( 'NONE', #107, #225, #147 ) ;
#252 = EDGE_LOOP ( 'NONE', ( #92, #55 ) ) ;
#253 = DATE_AND_TIME ( #235, #1 ) ;
#254 = ORIENTED_EDGE ( 'NONE', *, *, #77, .F. ) ;
#255 = ORIENTED_EDGE ( 'NONE', *, *, #9, .F. ) ;
ENDSEC;
END-ISO-10303-21;
