ISO-10303-21;
HEADER;
FILE_DESCRIPTION (( 'STEP AP203' ),
    '1' );
FILE_NAME ('2e78.STEP',
    '2022-07-07T18:01:19',
    ( '' ),
    ( '' ),
    'SwSTEP 2.0',
    'SolidWorks 2019',
    '' );
FILE_SCHEMA (( 'CONFIG_CONTROL_DESIGN' ));
ENDSEC;

DATA;
#1 = AXIS2_PLACEMENT_3D ( 'NONE', #183, #65, #166 ) ;
#2 = DATE_TIME_ROLE ( 'classification_date' ) ;
#3 = CARTESIAN_POINT ( 'NONE',  ( 1.000000000000000000, 1.224646799147353207E-16, 2.000000000000000000 ) ) ;
#4 = ORIENTED_EDGE ( 'NONE', *, *, #192, .T. ) ;
#5 = DIRECTION ( 'NONE',  ( 1.000000000000000000, 0.000000000000000000, 0.000000000000000000 ) ) ;
#6 = APPROVAL ( #217, 'NEURÈENÝ' ) ;
#7 = ORIENTED_EDGE ( 'NONE', *, *, #192, .F. ) ;
#8 = DIRECTION ( 'NONE',  ( 0.000000000000000000, 0.000000000000000000, 1.000000000000000000 ) ) ;
#9 = CARTESIAN_POINT ( 'NONE',  ( 0.000000000000000000, 0.000000000000000000, 0.000000000000000000 ) ) ;
#10 = DIRECTION ( 'NONE',  ( 0.000000000000000000, 0.000000000000000000, 1.000000000000000000 ) ) ;
#11 = DATE_AND_TIME ( #133, #121 ) ;
#12 = ORIENTED_EDGE ( 'NONE', *, *, #138, .T. ) ;
#13 = MECHANICAL_CONTEXT ( 'NONE', #215, 'mechanical' ) ;
#14 = VERTEX_POINT ( 'NONE', #221 ) ;
#15 =( NAMED_UNIT ( * ) PLANE_ANGLE_UNIT ( ) SI_UNIT ( $, .RADIAN. ) );
#16 = CC_DESIGN_PERSON_AND_ORGANIZATION_ASSIGNMENT ( #53, #229, ( #93 ) ) ;
#17 = APPLICATION_CONTEXT ( 'configuration controlled 3d designs of mechanical parts and assemblies' ) ;
#18 = PRODUCT_DEFINITION_SHAPE ( 'NONE', 'NONE',  #156 ) ;
#19 = CALENDAR_DATE ( 2022, 7, 7 ) ;
#20 = COORDINATED_UNIVERSAL_TIME_OFFSET ( 1, 0, .AHEAD. ) ;
#21 = CARTESIAN_POINT ( 'NONE',  ( 0.000000000000000000, 0.000000000000000000, 2.000000000000000000 ) ) ;
#22 = CC_DESIGN_DATE_AND_TIME_ASSIGNMENT ( #176, #2, ( #238 ) ) ;
#23 = DIRECTION ( 'NONE',  ( -0.000000000000000000, -0.000000000000000000, -1.000000000000000000 ) ) ;
#24 = VERTEX_POINT ( 'NONE', #219 ) ;
#25 = FACE_OUTER_BOUND ( 'NONE', #208, .T. ) ;
#26 = ORIENTED_EDGE ( 'NONE', *, *, #248, .T. ) ;
#27 = CLOSED_SHELL ( 'NONE', ( #95, #149, #158, #88, #70, #252, #227 ) ) ;
#28 = DIRECTION ( 'NONE',  ( -0.000000000000000000, -0.000000000000000000, -1.000000000000000000 ) ) ;
#29 = COORDINATED_UNIVERSAL_TIME_OFFSET ( 1, 0, .AHEAD. ) ;
#30 = PRODUCT_RELATED_PRODUCT_CATEGORY ( 'detail', '', ( #93 ) ) ;
#31 = ORIENTED_EDGE ( 'NONE', *, *, #52, .F. ) ;
#32 = VECTOR ( 'NONE', #191, 1000.000000000000000 ) ;
#33 = FACE_OUTER_BOUND ( 'NONE', #57, .T. ) ;
#34 = DIRECTION ( 'NONE',  ( -0.000000000000000000, -0.000000000000000000, -1.000000000000000000 ) ) ;
#35 = ORIENTED_EDGE ( 'NONE', *, *, #255, .T. ) ;
#36 = CYLINDRICAL_SURFACE ( 'NONE', #92, 1.000000000000000000 ) ;
#37 = AXIS2_PLACEMENT_3D ( 'NONE', #223, #8, #56 ) ;
#38 = AXIS2_PLACEMENT_3D ( 'NONE', #119, #28, #148 ) ;
#39 = UNCERTAINTY_MEASURE_WITH_UNIT (LENGTH_MEASURE( 1.000000000000000082E-05 ), #249, 'distance_accuracy_value', 'NONE');
#40 = FACE_OUTER_BOUND ( 'NONE', #151, .T. ) ;
#41 = DIRECTION ( 'NONE',  ( 0.000000000000000000, 0.000000000000000000, 1.000000000000000000 ) ) ;
#42 = ORIENTED_EDGE ( 'NONE', *, *, #101, .T. ) ;
#43 = CARTESIAN_POINT ( 'NONE',  ( 0.000000000000000000, 0.000000000000000000, 2.000000000000000000 ) ) ;
#44 = ORIENTED_EDGE ( 'NONE', *, *, #135, .T. ) ;
#45 = CYLINDRICAL_SURFACE ( 'NONE', #157, 1.000000000000000000 ) ;
#46 = ORIENTED_EDGE ( 'NONE', *, *, #213, .T. ) ;
#47 = DIRECTION ( 'NONE',  ( 1.000000000000000000, 0.000000000000000000, -0.000000000000000000 ) ) ;
#48 = CARTESIAN_POINT ( 'NONE',  ( -1.000000000000000000, 0.000000000000000000, 252.0000000000000000 ) ) ;
#49 = ORIENTED_EDGE ( 'NONE', *, *, #138, .F. ) ;
#50 = CC_DESIGN_APPROVAL ( #154, ( #128 ) ) ;
#51 = PERSON_AND_ORGANIZATION ( #113, #152 ) ;
#52 = EDGE_CURVE ( 'NONE', #145, #99, #137, .T. ) ;
#53 = PERSON_AND_ORGANIZATION ( #113, #152 ) ;
#54 = PERSON_AND_ORGANIZATION_ROLE ( 'classification_officer' ) ;
#55 = APPROVAL_PERSON_ORGANIZATION ( #118, #6, #159 ) ;
#56 = DIRECTION ( 'NONE',  ( 1.000000000000000000, 0.000000000000000000, -0.000000000000000000 ) ) ;
#57 = EDGE_LOOP ( 'NONE', ( #170, #4, #142, #187 ) ) ;
#58 = CARTESIAN_POINT ( 'NONE',  ( 1.000000000000000000, 1.224646799147353207E-16, 252.0000000000000000 ) ) ;
#59 = PLANE ( 'NONE',  #181 ) ;
#60 = EDGE_CURVE ( 'NONE', #24, #124, #94, .T. ) ;
#61 = DIRECTION ( 'NONE',  ( -0.000000000000000000, -0.000000000000000000, -1.000000000000000000 ) ) ;
#62 = ORIENTED_EDGE ( 'NONE', *, *, #79, .F. ) ;
#63 = CYLINDRICAL_SURFACE ( 'NONE', #38, 2.000000000000000000 ) ;
#64 = CARTESIAN_POINT ( 'NONE',  ( 0.000000000000000000, 0.000000000000000000, 252.0000000000000000 ) ) ;
#65 = DIRECTION ( 'NONE',  ( 0.000000000000000000, 0.000000000000000000, 1.000000000000000000 ) ) ;
#66 = APPROVAL_ROLE ( '' ) ;
#67 = CARTESIAN_POINT ( 'NONE',  ( 0.000000000000000000, 0.000000000000000000, 0.000000000000000000 ) ) ;
#68 = CC_DESIGN_PERSON_AND_ORGANIZATION_ASSIGNMENT ( #237, #195, ( #128 ) ) ;
#69 = MANIFOLD_SOLID_BREP ( 'Pøidat vysunutím3', #27 ) ;
#70 = ADVANCED_FACE ( 'NONE', ( #122 ), #59, .F. ) ;
#71 = CIRCLE ( 'NONE', #174, 2.000000000000000000 ) ;
#72 = LOCAL_TIME ( 20, 1, 19.00000000000000000, #29 ) ;
#73 = EDGE_CURVE ( 'NONE', #107, #102, #112, .T. ) ;
#74 = PERSON_AND_ORGANIZATION ( #113, #152 ) ;
#75 = APPROVAL_DATE_TIME ( #97, #154 ) ;
#76 = DIRECTION ( 'NONE',  ( -0.000000000000000000, -0.000000000000000000, -1.000000000000000000 ) ) ;
#77 = ORIENTED_EDGE ( 'NONE', *, *, #60, .T. ) ;
#78 = CARTESIAN_POINT ( 'NONE',  ( 0.000000000000000000, 0.000000000000000000, 252.0000000000000000 ) ) ;
#79 = EDGE_CURVE ( 'NONE', #99, #145, #190, .T. ) ;
#80 = CARTESIAN_POINT ( 'NONE',  ( 0.000000000000000000, 0.000000000000000000, 0.000000000000000000 ) ) ;
#81 = CARTESIAN_POINT ( 'NONE',  ( 0.000000000000000000, 0.000000000000000000, 252.0000000000000000 ) ) ;
#82 = APPROVAL_PERSON_ORGANIZATION ( #251, #197, #66 ) ;
#83 = CARTESIAN_POINT ( 'NONE',  ( 2.000000000000000000, 2.449293598294706414E-16, 0.000000000000000000 ) ) ;
#84 = DIRECTION ( 'NONE',  ( -1.000000000000000000, 0.000000000000000000, 0.000000000000000000 ) ) ;
#85 = ORIENTED_EDGE ( 'NONE', *, *, #73, .F. ) ;
#86 = APPROVAL_STATUS ( 'not_yet_approved' ) ;
#87 = ORIENTED_EDGE ( 'NONE', *, *, #52, .T. ) ;
#88 = ADVANCED_FACE ( 'NONE', ( #198, #245 ), #204, .T. ) ;
#89 = APPLICATION_PROTOCOL_DEFINITION ( 'international standard', 'config_control_design', 1994, #17 ) ;
#90 = DIRECTION ( 'NONE',  ( 0.000000000000000000, 0.000000000000000000, 1.000000000000000000 ) ) ;
#91 = CIRCLE ( 'NONE', #236, 1.000000000000000000 ) ;
#92 = AXIS2_PLACEMENT_3D ( 'NONE', #64, #114, #84 ) ;
#93 = PRODUCT ( '2e78', '2e78', '', ( #13 ) ) ;
#94 = CIRCLE ( 'NONE', #1, 1.000000000000000000 ) ;
#95 = ADVANCED_FACE ( 'NONE', ( #40 ), #45, .T. ) ;
#96 = CALENDAR_DATE ( 2022, 7, 7 ) ;
#97 = DATE_AND_TIME ( #140, #155 ) ;
#98 = CYLINDRICAL_SURFACE ( 'NONE', #136, 2.000000000000000000 ) ;
#99 = VERTEX_POINT ( 'NONE', #83 ) ;
#100 = DIRECTION ( 'NONE',  ( 0.000000000000000000, 0.000000000000000000, 1.000000000000000000 ) ) ;
#101 = EDGE_CURVE ( 'NONE', #102, #107, #71, .T. ) ;
#102 = VERTEX_POINT ( 'NONE', #243 ) ;
#103 = PLANE ( 'NONE',  #139 ) ;
#104 = DIRECTION ( 'NONE',  ( 0.000000000000000000, 0.000000000000000000, 1.000000000000000000 ) ) ;
#105 = DIRECTION ( 'NONE',  ( 0.000000000000000000, 0.000000000000000000, 1.000000000000000000 ) ) ;
#106 = DATE_AND_TIME ( #226, #72 ) ;
#107 = VERTEX_POINT ( 'NONE', #222 ) ;
#108 = LINE ( 'NONE', #150, #32 ) ;
#109 = ORIENTED_EDGE ( 'NONE', *, *, #255, .F. ) ;
#110 = CC_DESIGN_PERSON_AND_ORGANIZATION_ASSIGNMENT ( #74, #54, ( #238 ) ) ;
#111 = FACE_OUTER_BOUND ( 'NONE', #178, .T. ) ;
#112 = CIRCLE ( 'NONE', #173, 2.000000000000000000 ) ;
#113 = PERSON ( 'NEURÈENÝ', 'NEURÈENÝ', 'NEURÈENÝ', ('NEURÈENÝ'), ('NEURÈENÝ'), ('NEURÈENÝ') ) ;
#114 = DIRECTION ( 'NONE',  ( -0.000000000000000000, -0.000000000000000000, -1.000000000000000000 ) ) ;
#115 = PERSON_AND_ORGANIZATION ( #113, #152 ) ;
#116 = COORDINATED_UNIVERSAL_TIME_OFFSET ( 1, 0, .AHEAD. ) ;
#117 = CC_DESIGN_DATE_AND_TIME_ASSIGNMENT ( #106, #186, ( #156 ) ) ;
#118 = PERSON_AND_ORGANIZATION ( #113, #152 ) ;
#119 = CARTESIAN_POINT ( 'NONE',  ( 0.000000000000000000, 0.000000000000000000, 2.000000000000000000 ) ) ;
#120 = LINE ( 'NONE', #167, #184 ) ;
#121 = LOCAL_TIME ( 20, 1, 19.00000000000000000, #132 ) ;
#122 = FACE_OUTER_BOUND ( 'NONE', #180, .T. ) ;
#123 = DIRECTION ( 'NONE',  ( 0.000000000000000000, 0.000000000000000000, 1.000000000000000000 ) ) ;
#124 = VERTEX_POINT ( 'NONE', #3 ) ;
#125 = LINE ( 'NONE', #127, #211 ) ;
#126 = EDGE_LOOP ( 'NONE', ( #247, #203 ) ) ;
#127 = CARTESIAN_POINT ( 'NONE',  ( -2.000000000000000000, 0.000000000000000000, 2.000000000000000000 ) ) ;
#128 = PRODUCT_DEFINITION_FORMATION_WITH_SPECIFIED_SOURCE ( 'LIBOVOLNÝ', '', #93, .NOT_KNOWN. ) ;
#129 = DIRECTION ( 'NONE',  ( 1.000000000000000000, 0.000000000000000000, 0.000000000000000000 ) ) ;
#130 = EDGE_CURVE ( 'NONE', #107, #145, #125, .T. ) ;
#131 = DESIGN_CONTEXT ( 'detailed design', #17, 'design' ) ;
#132 = COORDINATED_UNIVERSAL_TIME_OFFSET ( 1, 0, .AHEAD. ) ;
#133 = CALENDAR_DATE ( 2022, 7, 7 ) ;
#134 = DIRECTION ( 'NONE',  ( 1.000000000000000000, 0.000000000000000000, -0.000000000000000000 ) ) ;
#135 = EDGE_CURVE ( 'NONE', #14, #206, #164, .T. ) ;
#136 = AXIS2_PLACEMENT_3D ( 'NONE', #21, #23, #177 ) ;
#137 = CIRCLE ( 'NONE', #232, 2.000000000000000000 ) ;
#138 = EDGE_CURVE ( 'NONE', #206, #14, #91, .T. ) ;
#139 = AXIS2_PLACEMENT_3D ( 'NONE', #182, #172, #134 ) ;
#140 = CALENDAR_DATE ( 2022, 7, 7 ) ;
#141 = DIRECTION ( 'NONE',  ( 1.000000000000000000, 0.000000000000000000, 0.000000000000000000 ) ) ;
#142 = ORIENTED_EDGE ( 'NONE', *, *, #79, .T. ) ;
#143 =( GEOMETRIC_REPRESENTATION_CONTEXT ( 3 ) GLOBAL_UNCERTAINTY_ASSIGNED_CONTEXT ( ( #39 ) ) GLOBAL_UNIT_ASSIGNED_CONTEXT ( ( #249, #15, #228 ) ) REPRESENTATION_CONTEXT ( 'NONE', 'WORKASPACE' ) );
#144 = CARTESIAN_POINT ( 'NONE',  ( 0.000000000000000000, 0.000000000000000000, 0.000000000000000000 ) ) ;
#145 = VERTEX_POINT ( 'NONE', #241 ) ;
#146 = DIRECTION ( 'NONE',  ( -1.000000000000000000, 0.000000000000000000, 0.000000000000000000 ) ) ;
#147 = ORIENTED_EDGE ( 'NONE', *, *, #135, .F. ) ;
#148 = DIRECTION ( 'NONE',  ( -1.000000000000000000, 0.000000000000000000, 0.000000000000000000 ) ) ;
#149 = ADVANCED_FACE ( 'NONE', ( #33 ), #63, .T. ) ;
#150 = CARTESIAN_POINT ( 'NONE',  ( 1.000000000000000000, 1.224646799147353207E-16, 252.0000000000000000 ) ) ;
#151 = EDGE_LOOP ( 'NONE', ( #49, #35, #46, #189 ) ) ;
#152 = ORGANIZATION ( 'NEURÈENÝ', 'NEURÈENÝ', '' ) ;
#153 = APPROVAL_DATE_TIME ( #11, #197 ) ;
#154 = APPROVAL ( #209, 'NEURÈENÝ' ) ;
#155 = LOCAL_TIME ( 20, 1, 19.00000000000000000, #116 ) ;
#156 = PRODUCT_DEFINITION ( 'NEZNÁMÝ', '', #128, #131 ) ;
#157 = AXIS2_PLACEMENT_3D ( 'NONE', #81, #61, #146 ) ;
#158 = ADVANCED_FACE ( 'NONE', ( #165 ), #98, .T. ) ;
#159 = APPROVAL_ROLE ( '' ) ;
#160 = AXIS2_PLACEMENT_3D ( 'NONE', #67, #90, #129 ) ;
#161 = PERSON_AND_ORGANIZATION ( #113, #152 ) ;
#162 = DIRECTION ( 'NONE',  ( 1.000000000000000000, 0.000000000000000000, 0.000000000000000000 ) ) ;
#163 = EDGE_LOOP ( 'NONE', ( #201, #42 ) ) ;
#164 = CIRCLE ( 'NONE', #253, 1.000000000000000000 ) ;
#165 = FACE_OUTER_BOUND ( 'NONE', #244, .T. ) ;
#166 = DIRECTION ( 'NONE',  ( 1.000000000000000000, 0.000000000000000000, 0.000000000000000000 ) ) ;
#167 = CARTESIAN_POINT ( 'NONE',  ( 2.000000000000000000, 2.449293598294706414E-16, 2.000000000000000000 ) ) ;
#168 = DIRECTION ( 'NONE',  ( 0.000000000000000000, 0.000000000000000000, 1.000000000000000000 ) ) ;
#169 = APPROVAL_ROLE ( '' ) ;
#170 = ORIENTED_EDGE ( 'NONE', *, *, #101, .F. ) ;
#171 = LINE ( 'NONE', #48, #212 ) ;
#172 = DIRECTION ( 'NONE',  ( 0.000000000000000000, 0.000000000000000000, 1.000000000000000000 ) ) ;
#173 = AXIS2_PLACEMENT_3D ( 'NONE', #185, #10, #141 ) ;
#174 = AXIS2_PLACEMENT_3D ( 'NONE', #218, #41, #5 ) ;
#175 = PERSON_AND_ORGANIZATION_ROLE ( 'design_supplier' ) ;
#176 = DATE_AND_TIME ( #19, #225 ) ;
#177 = DIRECTION ( 'NONE',  ( -1.000000000000000000, 0.000000000000000000, 0.000000000000000000 ) ) ;
#178 = EDGE_LOOP ( 'NONE', ( #109, #147, #26, #77 ) ) ;
#179 = DIRECTION ( 'NONE',  ( 1.000000000000000000, 0.000000000000000000, 0.000000000000000000 ) ) ;
#180 = EDGE_LOOP ( 'NONE', ( #31, #62 ) ) ;
#181 = AXIS2_PLACEMENT_3D ( 'NONE', #9, #168, #47 ) ;
#182 = CARTESIAN_POINT ( 'NONE',  ( 0.000000000000000000, 0.000000000000000000, 252.0000000000000000 ) ) ;
#183 = CARTESIAN_POINT ( 'NONE',  ( 0.000000000000000000, 0.000000000000000000, 2.000000000000000000 ) ) ;
#184 = VECTOR ( 'NONE', #200, 1000.000000000000000 ) ;
#185 = CARTESIAN_POINT ( 'NONE',  ( 0.000000000000000000, 0.000000000000000000, 2.000000000000000000 ) ) ;
#186 = DATE_TIME_ROLE ( 'creation_date' ) ;
#187 = ORIENTED_EDGE ( 'NONE', *, *, #130, .F. ) ;
#188 = APPLICATION_PROTOCOL_DEFINITION ( 'international standard', 'config_control_design', 1994, #215 ) ;
#189 = ORIENTED_EDGE ( 'NONE', *, *, #248, .F. ) ;
#190 = CIRCLE ( 'NONE', #216, 2.000000000000000000 ) ;
#191 = DIRECTION ( 'NONE',  ( -0.000000000000000000, -0.000000000000000000, -1.000000000000000000 ) ) ;
#192 = EDGE_CURVE ( 'NONE', #102, #99, #120, .T. ) ;
#193 = CC_DESIGN_SECURITY_CLASSIFICATION ( #238, ( #128 ) ) ;
#194 = AXIS2_PLACEMENT_3D ( 'NONE', #43, #123, #202 ) ;
#195 = PERSON_AND_ORGANIZATION_ROLE ( 'creator' ) ;
#196 = COORDINATED_UNIVERSAL_TIME_OFFSET ( 1, 0, .AHEAD. ) ;
#197 = APPROVAL ( #86, 'NEURÈENÝ' ) ;
#198 = FACE_BOUND ( 'NONE', #126, .T. ) ;
#199 = CC_DESIGN_APPROVAL ( #6, ( #238 ) ) ;
#200 = DIRECTION ( 'NONE',  ( -0.000000000000000000, -0.000000000000000000, -1.000000000000000000 ) ) ;
#201 = ORIENTED_EDGE ( 'NONE', *, *, #73, .T. ) ;
#202 = DIRECTION ( 'NONE',  ( 1.000000000000000000, 0.000000000000000000, 0.000000000000000000 ) ) ;
#203 = ORIENTED_EDGE ( 'NONE', *, *, #213, .F. ) ;
#204 = PLANE ( 'NONE',  #37 ) ;
#205 = PERSON_AND_ORGANIZATION_ROLE ( 'creator' ) ;
#206 = VERTEX_POINT ( 'NONE', #58 ) ;
#207 = CARTESIAN_POINT ( 'NONE',  ( 0.000000000000000000, 0.000000000000000000, 252.0000000000000000 ) ) ;
#208 = EDGE_LOOP ( 'NONE', ( #44, #12 ) ) ;
#209 = APPROVAL_STATUS ( 'not_yet_approved' ) ;
#210 = CC_DESIGN_PERSON_AND_ORGANIZATION_ASSIGNMENT ( #161, #175, ( #128 ) ) ;
#211 = VECTOR ( 'NONE', #76, 1000.000000000000000 ) ;
#212 = VECTOR ( 'NONE', #34, 1000.000000000000000 ) ;
#213 = EDGE_CURVE ( 'NONE', #124, #24, #254, .T. ) ;
#214 = SHAPE_DEFINITION_REPRESENTATION ( #18, #235 ) ;
#215 = APPLICATION_CONTEXT ( 'configuration controlled 3d designs of mechanical parts and assemblies' ) ;
#216 = AXIS2_PLACEMENT_3D ( 'NONE', #144, #100, #162 ) ;
#217 = APPROVAL_STATUS ( 'not_yet_approved' ) ;
#218 = CARTESIAN_POINT ( 'NONE',  ( 0.000000000000000000, 0.000000000000000000, 2.000000000000000000 ) ) ;
#219 = CARTESIAN_POINT ( 'NONE',  ( -1.000000000000000000, 0.000000000000000000, 2.000000000000000000 ) ) ;
#220 = DIRECTION ( 'NONE',  ( 1.000000000000000000, 0.000000000000000000, 0.000000000000000000 ) ) ;
#221 = CARTESIAN_POINT ( 'NONE',  ( -1.000000000000000000, 0.000000000000000000, 252.0000000000000000 ) ) ;
#222 = CARTESIAN_POINT ( 'NONE',  ( -2.000000000000000000, 0.000000000000000000, 2.000000000000000000 ) ) ;
#223 = CARTESIAN_POINT ( 'NONE',  ( 0.000000000000000000, 0.000000000000000000, 2.000000000000000000 ) ) ;
#224 = DIRECTION ( 'NONE',  ( 1.000000000000000000, 0.000000000000000000, 0.000000000000000000 ) ) ;
#225 = LOCAL_TIME ( 20, 1, 19.00000000000000000, #196 ) ;
#226 = CALENDAR_DATE ( 2022, 7, 7 ) ;
#227 = ADVANCED_FACE ( 'NONE', ( #25 ), #103, .T. ) ;
#228 =( NAMED_UNIT ( * ) SI_UNIT ( $, .STERADIAN. ) SOLID_ANGLE_UNIT ( ) );
#229 = PERSON_AND_ORGANIZATION_ROLE ( 'design_owner' ) ;
#230 = CC_DESIGN_PERSON_AND_ORGANIZATION_ASSIGNMENT ( #115, #205, ( #156 ) ) ;
#231 = CC_DESIGN_APPROVAL ( #197, ( #156 ) ) ;
#232 = AXIS2_PLACEMENT_3D ( 'NONE', #80, #104, #224 ) ;
#233 = APPROVAL_PERSON_ORGANIZATION ( #51, #154, #169 ) ;
#234 = SECURITY_CLASSIFICATION_LEVEL ( 'unclassified' ) ;
#235 = ADVANCED_BREP_SHAPE_REPRESENTATION ( '2e78', ( #69, #160 ), #143 ) ;
#236 = AXIS2_PLACEMENT_3D ( 'NONE', #207, #246, #179 ) ;
#237 = PERSON_AND_ORGANIZATION ( #113, #152 ) ;
#238 = SECURITY_CLASSIFICATION ( '', '', #234 ) ;
#239 = APPROVAL_DATE_TIME ( #240, #6 ) ;
#240 = DATE_AND_TIME ( #96, #250 ) ;
#241 = CARTESIAN_POINT ( 'NONE',  ( -2.000000000000000000, 0.000000000000000000, 0.000000000000000000 ) ) ;
#242 = ORIENTED_EDGE ( 'NONE', *, *, #130, .T. ) ;
#243 = CARTESIAN_POINT ( 'NONE',  ( 2.000000000000000000, 2.449293598294706414E-16, 2.000000000000000000 ) ) ;
#244 = EDGE_LOOP ( 'NONE', ( #7, #85, #242, #87 ) ) ;
#245 = FACE_OUTER_BOUND ( 'NONE', #163, .T. ) ;
#246 = DIRECTION ( 'NONE',  ( 0.000000000000000000, 0.000000000000000000, 1.000000000000000000 ) ) ;
#247 = ORIENTED_EDGE ( 'NONE', *, *, #60, .F. ) ;
#248 = EDGE_CURVE ( 'NONE', #14, #24, #171, .T. ) ;
#249 =( LENGTH_UNIT ( ) NAMED_UNIT ( * ) SI_UNIT ( .MILLI., .METRE. ) );
#250 = LOCAL_TIME ( 20, 1, 19.00000000000000000, #20 ) ;
#251 = PERSON_AND_ORGANIZATION ( #113, #152 ) ;
#252 = ADVANCED_FACE ( 'NONE', ( #111 ), #36, .T. ) ;
#253 = AXIS2_PLACEMENT_3D ( 'NONE', #78, #105, #220 ) ;
#254 = CIRCLE ( 'NONE', #194, 1.000000000000000000 ) ;
#255 = EDGE_CURVE ( 'NONE', #206, #124, #108, .T. ) ;
ENDSEC;
END-ISO-10303-21;
