ISO-10303-21;
HEADER;
FILE_DESCRIPTION (( 'STEP AP203' ),
    '1' );
FILE_NAME ('3866.STEP',
    '2022-07-07T17:11:39',
    ( '' ),
    ( '' ),
    'SwSTEP 2.0',
    'SolidWorks 2019',
    '' );
FILE_SCHEMA (( 'CONFIG_CONTROL_DESIGN' ));
ENDSEC;

DATA;
#1 = APPROVAL_PERSON_ORGANIZATION ( #159, #70, #161 ) ;
#2 = ORIENTED_EDGE ( 'NONE', *, *, #208, .T. ) ;
#3 = EDGE_LOOP ( 'NONE', ( #40, #81, #214, #134 ) ) ;
#4 = CIRCLE ( 'NONE', #71, 11.00000000000000000 ) ;
#5 = DATE_AND_TIME ( #26, #48 ) ;
#6 = CC_DESIGN_PERSON_AND_ORGANIZATION_ASSIGNMENT ( #144, #226, ( #187 ) ) ;
#7 = DATE_AND_TIME ( #68, #223 ) ;
#8 = MANIFOLD_SOLID_BREP ( 'Pøidat vysunutím3', #85 ) ;
#9 = PERSON_AND_ORGANIZATION ( #106, #146 ) ;
#10 = CARTESIAN_POINT ( 'NONE',  ( 0.000000000000000000, 0.000000000000000000, 507.0000000000000000 ) ) ;
#11 = VECTOR ( 'NONE', #170, 1000.000000000000000 ) ;
#12 = COORDINATED_UNIVERSAL_TIME_OFFSET ( 1, 0, .AHEAD. ) ;
#13 = ADVANCED_FACE ( 'NONE', ( #203, #18 ), #174, .T. ) ;
#14 = DIRECTION ( 'NONE',  ( 0.000000000000000000, 0.000000000000000000, 1.000000000000000000 ) ) ;
#15 = CARTESIAN_POINT ( 'NONE',  ( 0.000000000000000000, 0.000000000000000000, 7.000000000000000000 ) ) ;
#16 = CARTESIAN_POINT ( 'NONE',  ( 11.00000000000000000, 1.347111479062088405E-15, 7.000000000000000000 ) ) ;
#17 = DIRECTION ( 'NONE',  ( 0.000000000000000000, 0.000000000000000000, 1.000000000000000000 ) ) ;
#18 = FACE_OUTER_BOUND ( 'NONE', #95, .T. ) ;
#19 = DIRECTION ( 'NONE',  ( -0.000000000000000000, -0.000000000000000000, -1.000000000000000000 ) ) ;
#20 = DIRECTION ( 'NONE',  ( 0.000000000000000000, 0.000000000000000000, 1.000000000000000000 ) ) ;
#21 = DIRECTION ( 'NONE',  ( -1.000000000000000000, 0.000000000000000000, 0.000000000000000000 ) ) ;
#22 = ORIENTED_EDGE ( 'NONE', *, *, #96, .T. ) ;
#23 = ORIENTED_EDGE ( 'NONE', *, *, #248, .F. ) ;
#24 = EDGE_LOOP ( 'NONE', ( #199, #23 ) ) ;
#25 = ADVANCED_FACE ( 'NONE', ( #59 ), #118, .T. ) ;
#26 = CALENDAR_DATE ( 2022, 7, 7 ) ;
#27 = LOCAL_TIME ( 19, 11, 39.00000000000000000, #12 ) ;
#28 = VECTOR ( 'NONE', #234, 1000.000000000000000 ) ;
#29 = DESIGN_CONTEXT ( 'detailed design', #250, 'design' ) ;
#30 = EDGE_CURVE ( 'NONE', #220, #100, #157, .T. ) ;
#31 = CALENDAR_DATE ( 2022, 7, 7 ) ;
#32 = DIRECTION ( 'NONE',  ( -0.000000000000000000, -0.000000000000000000, -1.000000000000000000 ) ) ;
#33 = EDGE_CURVE ( 'NONE', #100, #220, #193, .T. ) ;
#34 = CC_DESIGN_APPROVAL ( #109, ( #58 ) ) ;
#35 = DIRECTION ( 'NONE',  ( 1.000000000000000000, 0.000000000000000000, -0.000000000000000000 ) ) ;
#36 = CARTESIAN_POINT ( 'NONE',  ( 7.250000000000000000, 8.878689293818310074E-16, 507.0000000000000000 ) ) ;
#37 = AXIS2_PLACEMENT_3D ( 'NONE', #232, #39, #56 ) ;
#38 = EDGE_CURVE ( 'NONE', #218, #155, #4, .T. ) ;
#39 = DIRECTION ( 'NONE',  ( 0.000000000000000000, 0.000000000000000000, 1.000000000000000000 ) ) ;
#40 = ORIENTED_EDGE ( 'NONE', *, *, #241, .F. ) ;
#41 = DIRECTION ( 'NONE',  ( 1.000000000000000000, 0.000000000000000000, 0.000000000000000000 ) ) ;
#42 = ORIENTED_EDGE ( 'NONE', *, *, #30, .F. ) ;
#43 = CC_DESIGN_DATE_AND_TIME_ASSIGNMENT ( #7, #164, ( #177 ) ) ;
#44 = DATE_AND_TIME ( #181, #141 ) ;
#45 = SECURITY_CLASSIFICATION_LEVEL ( 'unclassified' ) ;
#46 = APPLICATION_PROTOCOL_DEFINITION ( 'international standard', 'config_control_design', 1994, #250 ) ;
#47 = PRODUCT_DEFINITION_SHAPE ( 'NONE', 'NONE',  #187 ) ;
#48 = LOCAL_TIME ( 19, 11, 39.00000000000000000, #225 ) ;
#49 = COORDINATED_UNIVERSAL_TIME_OFFSET ( 1, 0, .AHEAD. ) ;
#50 = CC_DESIGN_PERSON_AND_ORGANIZATION_ASSIGNMENT ( #107, #165, ( #58 ) ) ;
#51 = CARTESIAN_POINT ( 'NONE',  ( 11.00000000000000000, 1.347111479062088405E-15, 0.000000000000000000 ) ) ;
#52 = DIRECTION ( 'NONE',  ( -0.000000000000000000, -0.000000000000000000, -1.000000000000000000 ) ) ;
#53 = CYLINDRICAL_SURFACE ( 'NONE', #142, 7.250000000000000000 ) ;
#54 = CYLINDRICAL_SURFACE ( 'NONE', #244, 7.250000000000000000 ) ;
#55 = CIRCLE ( 'NONE', #136, 11.00000000000000000 ) ;
#56 = DIRECTION ( 'NONE',  ( 1.000000000000000000, 0.000000000000000000, 0.000000000000000000 ) ) ;
#57 = CARTESIAN_POINT ( 'NONE',  ( -7.250000000000000000, 0.000000000000000000, 507.0000000000000000 ) ) ;
#58 = PRODUCT_DEFINITION_FORMATION_WITH_SPECIFIED_SOURCE ( 'LIBOVOLNÝ', '', #206, .NOT_KNOWN. ) ;
#59 = FACE_OUTER_BOUND ( 'NONE', #137, .T. ) ;
#60 = DIRECTION ( 'NONE',  ( 0.000000000000000000, 0.000000000000000000, 1.000000000000000000 ) ) ;
#61 = EDGE_LOOP ( 'NONE', ( #156, #217, #82, #152 ) ) ;
#62 = CIRCLE ( 'NONE', #204, 7.250000000000000000 ) ;
#63 = EDGE_CURVE ( 'NONE', #155, #179, #249, .T. ) ;
#64 = ORIENTED_EDGE ( 'NONE', *, *, #67, .T. ) ;
#65 = VERTEX_POINT ( 'NONE', #74 ) ;
#66 = APPROVAL_DATE_TIME ( #5, #70 ) ;
#67 = EDGE_CURVE ( 'NONE', #218, #238, #176, .T. ) ;
#68 = CALENDAR_DATE ( 2022, 7, 7 ) ;
#69 = SHAPE_DEFINITION_REPRESENTATION ( #47, #175 ) ;
#70 = APPROVAL ( #140, 'NEURÈENÝ' ) ;
#71 = AXIS2_PLACEMENT_3D ( 'NONE', #195, #17, #41 ) ;
#72 = AXIS2_PLACEMENT_3D ( 'NONE', #131, #93, #231 ) ;
#73 =( NAMED_UNIT ( * ) SI_UNIT ( $, .STERADIAN. ) SOLID_ANGLE_UNIT ( ) );
#74 = CARTESIAN_POINT ( 'NONE',  ( 7.250000000000000000, 8.878689293818310074E-16, 507.0000000000000000 ) ) ;
#75 = CIRCLE ( 'NONE', #101, 7.250000000000000000 ) ;
#76 = FACE_OUTER_BOUND ( 'NONE', #102, .T. ) ;
#77 = CARTESIAN_POINT ( 'NONE',  ( -11.00000000000000000, 0.000000000000000000, 0.000000000000000000 ) ) ;
#78 = DIRECTION ( 'NONE',  ( 0.000000000000000000, 0.000000000000000000, 1.000000000000000000 ) ) ;
#79 = CYLINDRICAL_SURFACE ( 'NONE', #202, 11.00000000000000000 ) ;
#80 = ORIENTED_EDGE ( 'NONE', *, *, #241, .T. ) ;
#81 = ORIENTED_EDGE ( 'NONE', *, *, #162, .T. ) ;
#82 = ORIENTED_EDGE ( 'NONE', *, *, #63, .T. ) ;
#83 = CC_DESIGN_PERSON_AND_ORGANIZATION_ASSIGNMENT ( #182, #183, ( #177 ) ) ;
#84 = APPROVAL_STATUS ( 'not_yet_approved' ) ;
#85 = CLOSED_SHELL ( 'NONE', ( #251, #229, #221, #13, #124, #160, #25 ) ) ;
#86 = CIRCLE ( 'NONE', #72, 11.00000000000000000 ) ;
#87 = AXIS2_PLACEMENT_3D ( 'NONE', #128, #52, #227 ) ;
#88 = MECHANICAL_CONTEXT ( 'NONE', #192, 'mechanical' ) ;
#89 = DATE_AND_TIME ( #90, #222 ) ;
#90 = CALENDAR_DATE ( 2022, 7, 7 ) ;
#91 = DIRECTION ( 'NONE',  ( 0.000000000000000000, 0.000000000000000000, 1.000000000000000000 ) ) ;
#92 = CARTESIAN_POINT ( 'NONE',  ( 7.250000000000000000, 8.878689293818310074E-16, 7.000000000000000000 ) ) ;
#93 = DIRECTION ( 'NONE',  ( 0.000000000000000000, 0.000000000000000000, 1.000000000000000000 ) ) ;
#94 = DIRECTION ( 'NONE',  ( 0.000000000000000000, 0.000000000000000000, 1.000000000000000000 ) ) ;
#95 = EDGE_LOOP ( 'NONE', ( #120, #255 ) ) ;
#96 = EDGE_CURVE ( 'NONE', #121, #65, #75, .T. ) ;
#97 = FACE_OUTER_BOUND ( 'NONE', #61, .T. ) ;
#98 = EDGE_LOOP ( 'NONE', ( #235, #42 ) ) ;
#99 = FACE_OUTER_BOUND ( 'NONE', #139, .T. ) ;
#100 = VERTEX_POINT ( 'NONE', #150 ) ;
#101 = AXIS2_PLACEMENT_3D ( 'NONE', #148, #60, #247 ) ;
#102 = EDGE_LOOP ( 'NONE', ( #138, #201, #2, #237 ) ) ;
#103 = EDGE_CURVE ( 'NONE', #179, #238, #86, .T. ) ;
#104 = PERSON_AND_ORGANIZATION_ROLE ( 'design_supplier' ) ;
#105 = APPROVAL_DATE_TIME ( #44, #109 ) ;
#106 = PERSON ( 'NEURÈENÝ', 'NEURÈENÝ', 'NEURÈENÝ', ('NEURÈENÝ'), ('NEURÈENÝ'), ('NEURÈENÝ') ) ;
#107 = PERSON_AND_ORGANIZATION ( #106, #146 ) ;
#108 = APPROVAL_ROLE ( '' ) ;
#109 = APPROVAL ( #84, 'NEURÈENÝ' ) ;
#110 = APPROVAL_DATE_TIME ( #186, #211 ) ;
#111 = PERSON_AND_ORGANIZATION_ROLE ( 'design_owner' ) ;
#112 = DIRECTION ( 'NONE',  ( 0.000000000000000000, 0.000000000000000000, 1.000000000000000000 ) ) ;
#113 = APPROVAL_PERSON_ORGANIZATION ( #228, #109, #108 ) ;
#114 = CARTESIAN_POINT ( 'NONE',  ( -7.250000000000000000, 0.000000000000000000, 507.0000000000000000 ) ) ;
#115 = DIRECTION ( 'NONE',  ( 1.000000000000000000, 0.000000000000000000, 0.000000000000000000 ) ) ;
#116 = ORIENTED_EDGE ( 'NONE', *, *, #248, .T. ) ;
#117 = DIRECTION ( 'NONE',  ( 0.000000000000000000, 0.000000000000000000, 1.000000000000000000 ) ) ;
#118 = PLANE ( 'NONE',  #125 ) ;
#119 = CARTESIAN_POINT ( 'NONE',  ( 0.000000000000000000, 0.000000000000000000, 7.000000000000000000 ) ) ;
#120 = ORIENTED_EDGE ( 'NONE', *, *, #215, .T. ) ;
#121 = VERTEX_POINT ( 'NONE', #114 ) ;
#122 = PERSON_AND_ORGANIZATION ( #106, #146 ) ;
#123 = VECTOR ( 'NONE', #19, 1000.000000000000000 ) ;
#124 = ADVANCED_FACE ( 'NONE', ( #135 ), #210, .F. ) ;
#125 = AXIS2_PLACEMENT_3D ( 'NONE', #197, #20, #216 ) ;
#126 = AXIS2_PLACEMENT_3D ( 'NONE', #191, #94, #115 ) ;
#127 = DIRECTION ( 'NONE',  ( 1.000000000000000000, 0.000000000000000000, 0.000000000000000000 ) ) ;
#128 = CARTESIAN_POINT ( 'NONE',  ( 0.000000000000000000, 0.000000000000000000, 7.000000000000000000 ) ) ;
#129 = CC_DESIGN_PERSON_AND_ORGANIZATION_ASSIGNMENT ( #143, #111, ( #206 ) ) ;
#130 =( NAMED_UNIT ( * ) PLANE_ANGLE_UNIT ( ) SI_UNIT ( $, .RADIAN. ) );
#131 = CARTESIAN_POINT ( 'NONE',  ( 0.000000000000000000, 0.000000000000000000, 0.000000000000000000 ) ) ;
#132 = DIRECTION ( 'NONE',  ( 0.000000000000000000, 0.000000000000000000, 1.000000000000000000 ) ) ;
#133 = CARTESIAN_POINT ( 'NONE',  ( -11.00000000000000000, 0.000000000000000000, 7.000000000000000000 ) ) ;
#134 = ORIENTED_EDGE ( 'NONE', *, *, #208, .F. ) ;
#135 = FACE_OUTER_BOUND ( 'NONE', #24, .T. ) ;
#136 = AXIS2_PLACEMENT_3D ( 'NONE', #15, #117, #196 ) ;
#137 = EDGE_LOOP ( 'NONE', ( #22, #80 ) ) ;
#138 = ORIENTED_EDGE ( 'NONE', *, *, #162, .F. ) ;
#139 = EDGE_LOOP ( 'NONE', ( #153, #64, #116, #180 ) ) ;
#140 = APPROVAL_STATUS ( 'not_yet_approved' ) ;
#141 = LOCAL_TIME ( 19, 11, 39.00000000000000000, #184 ) ;
#142 = AXIS2_PLACEMENT_3D ( 'NONE', #10, #32, #188 ) ;
#143 = PERSON_AND_ORGANIZATION ( #106, #146 ) ;
#144 = PERSON_AND_ORGANIZATION ( #106, #146 ) ;
#145 =( LENGTH_UNIT ( ) NAMED_UNIT ( * ) SI_UNIT ( .MILLI., .METRE. ) );
#146 = ORGANIZATION ( 'NEURÈENÝ', 'NEURÈENÝ', '' ) ;
#147 = CC_DESIGN_SECURITY_CLASSIFICATION ( #177, ( #58 ) ) ;
#148 = CARTESIAN_POINT ( 'NONE',  ( 0.000000000000000000, 0.000000000000000000, 507.0000000000000000 ) ) ;
#149 = PRODUCT_RELATED_PRODUCT_CATEGORY ( 'detail', '', ( #206 ) ) ;
#150 = CARTESIAN_POINT ( 'NONE',  ( -7.250000000000000000, 0.000000000000000000, 7.000000000000000000 ) ) ;
#151 = LINE ( 'NONE', #57, #123 ) ;
#152 = ORIENTED_EDGE ( 'NONE', *, *, #103, .T. ) ;
#153 = ORIENTED_EDGE ( 'NONE', *, *, #38, .F. ) ;
#154 = AXIS2_PLACEMENT_3D ( 'NONE', #243, #112, #242 ) ;
#155 = VERTEX_POINT ( 'NONE', #230 ) ;
#156 = ORIENTED_EDGE ( 'NONE', *, *, #67, .F. ) ;
#157 = CIRCLE ( 'NONE', #37, 7.250000000000000000 ) ;
#158 = UNCERTAINTY_MEASURE_WITH_UNIT (LENGTH_MEASURE( 1.000000000000000082E-05 ), #145, 'distance_accuracy_value', 'NONE');
#159 = PERSON_AND_ORGANIZATION ( #106, #146 ) ;
#160 = ADVANCED_FACE ( 'NONE', ( #76 ), #54, .T. ) ;
#161 = APPROVAL_ROLE ( '' ) ;
#162 = EDGE_CURVE ( 'NONE', #65, #220, #212, .T. ) ;
#163 =( GEOMETRIC_REPRESENTATION_CONTEXT ( 3 ) GLOBAL_UNCERTAINTY_ASSIGNED_CONTEXT ( ( #158 ) ) GLOBAL_UNIT_ASSIGNED_CONTEXT ( ( #145, #130, #73 ) ) REPRESENTATION_CONTEXT ( 'NONE', 'WORKASPACE' ) );
#164 = DATE_TIME_ROLE ( 'classification_date' ) ;
#165 = PERSON_AND_ORGANIZATION_ROLE ( 'creator' ) ;
#166 = FACE_OUTER_BOUND ( 'NONE', #3, .T. ) ;
#167 = CC_DESIGN_APPROVAL ( #211, ( #187 ) ) ;
#168 = DATE_TIME_ROLE ( 'creation_date' ) ;
#169 = APPLICATION_PROTOCOL_DEFINITION ( 'international standard', 'config_control_design', 1994, #192 ) ;
#170 = DIRECTION ( 'NONE',  ( -0.000000000000000000, -0.000000000000000000, -1.000000000000000000 ) ) ;
#171 = CC_DESIGN_PERSON_AND_ORGANIZATION_ASSIGNMENT ( #122, #104, ( #58 ) ) ;
#172 = CARTESIAN_POINT ( 'NONE',  ( 0.000000000000000000, 0.000000000000000000, 0.000000000000000000 ) ) ;
#173 = DIRECTION ( 'NONE',  ( -0.000000000000000000, -0.000000000000000000, -1.000000000000000000 ) ) ;
#174 = PLANE ( 'NONE',  #239 ) ;
#175 = ADVANCED_BREP_SHAPE_REPRESENTATION ( '3866', ( #8, #200 ), #163 ) ;
#176 = LINE ( 'NONE', #16, #11 ) ;
#177 = SECURITY_CLASSIFICATION ( '', '', #45 ) ;
#178 = CARTESIAN_POINT ( 'NONE',  ( 11.00000000000000000, 1.347111479062088405E-15, 7.000000000000000000 ) ) ;
#179 = VERTEX_POINT ( 'NONE', #77 ) ;
#180 = ORIENTED_EDGE ( 'NONE', *, *, #63, .F. ) ;
#181 = CALENDAR_DATE ( 2022, 7, 7 ) ;
#182 = PERSON_AND_ORGANIZATION ( #106, #146 ) ;
#183 = PERSON_AND_ORGANIZATION_ROLE ( 'classification_officer' ) ;
#184 = COORDINATED_UNIVERSAL_TIME_OFFSET ( 1, 0, .AHEAD. ) ;
#185 = APPROVAL_STATUS ( 'not_yet_approved' ) ;
#186 = DATE_AND_TIME ( #31, #27 ) ;
#187 = PRODUCT_DEFINITION ( 'NEZNÁMÝ', '', #58, #29 ) ;
#188 = DIRECTION ( 'NONE',  ( -1.000000000000000000, 0.000000000000000000, 0.000000000000000000 ) ) ;
#189 = CARTESIAN_POINT ( 'NONE',  ( 0.000000000000000000, 0.000000000000000000, 0.000000000000000000 ) ) ;
#190 = CYLINDRICAL_SURFACE ( 'NONE', #87, 11.00000000000000000 ) ;
#191 = CARTESIAN_POINT ( 'NONE',  ( 0.000000000000000000, 0.000000000000000000, 7.000000000000000000 ) ) ;
#192 = APPLICATION_CONTEXT ( 'configuration controlled 3d designs of mechanical parts and assemblies' ) ;
#193 = CIRCLE ( 'NONE', #126, 7.250000000000000000 ) ;
#194 = CC_DESIGN_APPROVAL ( #70, ( #177 ) ) ;
#195 = CARTESIAN_POINT ( 'NONE',  ( 0.000000000000000000, 0.000000000000000000, 7.000000000000000000 ) ) ;
#196 = DIRECTION ( 'NONE',  ( 1.000000000000000000, 0.000000000000000000, 0.000000000000000000 ) ) ;
#197 = CARTESIAN_POINT ( 'NONE',  ( 0.000000000000000000, 0.000000000000000000, 507.0000000000000000 ) ) ;
#198 = DIRECTION ( 'NONE',  ( -0.000000000000000000, -0.000000000000000000, -1.000000000000000000 ) ) ;
#199 = ORIENTED_EDGE ( 'NONE', *, *, #103, .F. ) ;
#200 = AXIS2_PLACEMENT_3D ( 'NONE', #189, #91, #127 ) ;
#201 = ORIENTED_EDGE ( 'NONE', *, *, #96, .F. ) ;
#202 = AXIS2_PLACEMENT_3D ( 'NONE', #119, #198, #21 ) ;
#203 = FACE_BOUND ( 'NONE', #98, .T. ) ;
#204 = AXIS2_PLACEMENT_3D ( 'NONE', #246, #14, #209 ) ;
#205 = COORDINATED_UNIVERSAL_TIME_OFFSET ( 1, 0, .AHEAD. ) ;
#206 = PRODUCT ( '3866', '3866', '', ( #88 ) ) ;
#207 = APPROVAL_ROLE ( '' ) ;
#208 = EDGE_CURVE ( 'NONE', #121, #100, #151, .T. ) ;
#209 = DIRECTION ( 'NONE',  ( 1.000000000000000000, 0.000000000000000000, 0.000000000000000000 ) ) ;
#210 = PLANE ( 'NONE',  #224 ) ;
#211 = APPROVAL ( #185, 'NEURÈENÝ' ) ;
#212 = LINE ( 'NONE', #36, #245 ) ;
#213 = CARTESIAN_POINT ( 'NONE',  ( 0.000000000000000000, 0.000000000000000000, 507.0000000000000000 ) ) ;
#214 = ORIENTED_EDGE ( 'NONE', *, *, #30, .T. ) ;
#215 = EDGE_CURVE ( 'NONE', #155, #218, #55, .T. ) ;
#216 = DIRECTION ( 'NONE',  ( 1.000000000000000000, 0.000000000000000000, -0.000000000000000000 ) ) ;
#217 = ORIENTED_EDGE ( 'NONE', *, *, #215, .F. ) ;
#218 = VERTEX_POINT ( 'NONE', #178 ) ;
#219 = CC_DESIGN_DATE_AND_TIME_ASSIGNMENT ( #89, #168, ( #187 ) ) ;
#220 = VERTEX_POINT ( 'NONE', #92 ) ;
#221 = ADVANCED_FACE ( 'NONE', ( #97 ), #79, .T. ) ;
#222 = LOCAL_TIME ( 19, 11, 39.00000000000000000, #49 ) ;
#223 = LOCAL_TIME ( 19, 11, 39.00000000000000000, #205 ) ;
#224 = AXIS2_PLACEMENT_3D ( 'NONE', #172, #132, #35 ) ;
#225 = COORDINATED_UNIVERSAL_TIME_OFFSET ( 1, 0, .AHEAD. ) ;
#226 = PERSON_AND_ORGANIZATION_ROLE ( 'creator' ) ;
#227 = DIRECTION ( 'NONE',  ( -1.000000000000000000, 0.000000000000000000, 0.000000000000000000 ) ) ;
#228 = PERSON_AND_ORGANIZATION ( #106, #146 ) ;
#229 = ADVANCED_FACE ( 'NONE', ( #99 ), #190, .T. ) ;
#230 = CARTESIAN_POINT ( 'NONE',  ( -11.00000000000000000, 0.000000000000000000, 7.000000000000000000 ) ) ;
#231 = DIRECTION ( 'NONE',  ( 1.000000000000000000, 0.000000000000000000, 0.000000000000000000 ) ) ;
#232 = CARTESIAN_POINT ( 'NONE',  ( 0.000000000000000000, 0.000000000000000000, 7.000000000000000000 ) ) ;
#233 = DIRECTION ( 'NONE',  ( 1.000000000000000000, 0.000000000000000000, -0.000000000000000000 ) ) ;
#234 = DIRECTION ( 'NONE',  ( -0.000000000000000000, -0.000000000000000000, -1.000000000000000000 ) ) ;
#235 = ORIENTED_EDGE ( 'NONE', *, *, #33, .F. ) ;
#236 = CIRCLE ( 'NONE', #154, 11.00000000000000000 ) ;
#237 = ORIENTED_EDGE ( 'NONE', *, *, #33, .T. ) ;
#238 = VERTEX_POINT ( 'NONE', #51 ) ;
#239 = AXIS2_PLACEMENT_3D ( 'NONE', #253, #78, #233 ) ;
#240 = APPROVAL_PERSON_ORGANIZATION ( #9, #211, #207 ) ;
#241 = EDGE_CURVE ( 'NONE', #65, #121, #62, .T. ) ;
#242 = DIRECTION ( 'NONE',  ( 1.000000000000000000, 0.000000000000000000, 0.000000000000000000 ) ) ;
#243 = CARTESIAN_POINT ( 'NONE',  ( 0.000000000000000000, 0.000000000000000000, 0.000000000000000000 ) ) ;
#244 = AXIS2_PLACEMENT_3D ( 'NONE', #213, #254, #252 ) ;
#245 = VECTOR ( 'NONE', #173, 1000.000000000000000 ) ;
#246 = CARTESIAN_POINT ( 'NONE',  ( 0.000000000000000000, 0.000000000000000000, 507.0000000000000000 ) ) ;
#247 = DIRECTION ( 'NONE',  ( 1.000000000000000000, 0.000000000000000000, 0.000000000000000000 ) ) ;
#248 = EDGE_CURVE ( 'NONE', #238, #179, #236, .T. ) ;
#249 = LINE ( 'NONE', #133, #28 ) ;
#250 = APPLICATION_CONTEXT ( 'configuration controlled 3d designs of mechanical parts and assemblies' ) ;
#251 = ADVANCED_FACE ( 'NONE', ( #166 ), #53, .T. ) ;
#252 = DIRECTION ( 'NONE',  ( -1.000000000000000000, 0.000000000000000000, 0.000000000000000000 ) ) ;
#253 = CARTESIAN_POINT ( 'NONE',  ( 0.000000000000000000, 0.000000000000000000, 7.000000000000000000 ) ) ;
#254 = DIRECTION ( 'NONE',  ( -0.000000000000000000, -0.000000000000000000, -1.000000000000000000 ) ) ;
#255 = ORIENTED_EDGE ( 'NONE', *, *, #38, .T. ) ;
ENDSEC;
END-ISO-10303-21;
