ISO-10303-21;
HEADER;
FILE_DESCRIPTION (( 'STEP AP203' ),
    '1' );
FILE_NAME ('1614.STEP',
    '2022-07-07T17:29:59',
    ( '' ),
    ( '' ),
    'SwSTEP 2.0',
    'SolidWorks 2019',
    '' );
FILE_SCHEMA (( 'CONFIG_CONTROL_DESIGN' ));
ENDSEC;

DATA;
#1 = PERSON_AND_ORGANIZATION ( #133, #214 ) ;
#2 = EDGE_LOOP ( 'NONE', ( #120, #19, #182, #108 ) ) ;
#3 = PERSON_AND_ORGANIZATION_ROLE ( 'classification_officer' ) ;
#4 = ORIENTED_EDGE ( 'NONE', *, *, #113, .T. ) ;
#5 = VERTEX_POINT ( 'NONE', #238 ) ;
#6 = PERSON_AND_ORGANIZATION_ROLE ( 'design_owner' ) ;
#7 = CARTESIAN_POINT ( 'NONE',  ( 7.000000000000000000, 8.572527594031473190E-16, 5.000000000000000000 ) ) ;
#8 = DATE_AND_TIME ( #80, #190 ) ;
#9 = CARTESIAN_POINT ( 'NONE',  ( 0.000000000000000000, 0.000000000000000000, 0.000000000000000000 ) ) ;
#10 = CARTESIAN_POINT ( 'NONE',  ( -7.000000000000000000, 0.000000000000000000, 0.000000000000000000 ) ) ;
#11 = CIRCLE ( 'NONE', #152, 7.000000000000000000 ) ;
#12 = LINE ( 'NONE', #68, #24 ) ;
#13 = ORIENTED_EDGE ( 'NONE', *, *, #113, .F. ) ;
#14 = CC_DESIGN_DATE_AND_TIME_ASSIGNMENT ( #25, #194, ( #100 ) ) ;
#15 = ORIENTED_EDGE ( 'NONE', *, *, #225, .F. ) ;
#16 = APPROVAL ( #179, 'NEURÈENÝ' ) ;
#17 = PRODUCT_DEFINITION ( 'NEZNÁMÝ', '', #30, #233 ) ;
#18 = DIRECTION ( 'NONE',  ( 1.000000000000000000, 0.000000000000000000, 0.000000000000000000 ) ) ;
#19 = ORIENTED_EDGE ( 'NONE', *, *, #144, .T. ) ;
#20 = ORIENTED_EDGE ( 'NONE', *, *, #63, .T. ) ;
#21 = DIRECTION ( 'NONE',  ( -0.000000000000000000, -0.000000000000000000, -1.000000000000000000 ) ) ;
#22 = COORDINATED_UNIVERSAL_TIME_OFFSET ( 1, 0, .AHEAD. ) ;
#23 = DIRECTION ( 'NONE',  ( 1.000000000000000000, 0.000000000000000000, -0.000000000000000000 ) ) ;
#24 = VECTOR ( 'NONE', #146, 1000.000000000000000 ) ;
#25 = DATE_AND_TIME ( #243, #252 ) ;
#26 = ORIENTED_EDGE ( 'NONE', *, *, #192, .F. ) ;
#27 = ADVANCED_FACE ( 'NONE', ( #96 ), #255, .T. ) ;
#28 = APPROVAL_ROLE ( '' ) ;
#29 = DIRECTION ( 'NONE',  ( 0.000000000000000000, 0.000000000000000000, 1.000000000000000000 ) ) ;
#30 = PRODUCT_DEFINITION_FORMATION_WITH_SPECIFIED_SOURCE ( 'LIBOVOLNÝ', '', #217, .NOT_KNOWN. ) ;
#31 = DIRECTION ( 'NONE',  ( 1.000000000000000000, 0.000000000000000000, 0.000000000000000000 ) ) ;
#32 = DIRECTION ( 'NONE',  ( 1.000000000000000000, 0.000000000000000000, 0.000000000000000000 ) ) ;
#33 = AXIS2_PLACEMENT_3D ( 'NONE', #171, #188, #250 ) ;
#34 = EDGE_CURVE ( 'NONE', #46, #189, #195, .T. ) ;
#35 = CC_DESIGN_DATE_AND_TIME_ASSIGNMENT ( #223, #103, ( #17 ) ) ;
#36 = DIRECTION ( 'NONE',  ( 1.000000000000000000, 0.000000000000000000, 0.000000000000000000 ) ) ;
#37 = APPLICATION_PROTOCOL_DEFINITION ( 'international standard', 'config_control_design', 1994, #207 ) ;
#38 = DIRECTION ( 'NONE',  ( 1.000000000000000000, 0.000000000000000000, 0.000000000000000000 ) ) ;
#39 = APPROVAL_DATE_TIME ( #8, #94 ) ;
#40 = VECTOR ( 'NONE', #95, 1000.000000000000000 ) ;
#41 = DIRECTION ( 'NONE',  ( 1.000000000000000000, 0.000000000000000000, 0.000000000000000000 ) ) ;
#42 = EDGE_CURVE ( 'NONE', #199, #74, #141, .T. ) ;
#43 = EDGE_LOOP ( 'NONE', ( #151, #15 ) ) ;
#44 = LINE ( 'NONE', #7, #40 ) ;
#45 = PERSON_AND_ORGANIZATION_ROLE ( 'creator' ) ;
#46 = VERTEX_POINT ( 'NONE', #85 ) ;
#47 = CYLINDRICAL_SURFACE ( 'NONE', #54, 7.000000000000000000 ) ;
#48 = VECTOR ( 'NONE', #57, 1000.000000000000000 ) ;
#49 = ORIENTED_EDGE ( 'NONE', *, *, #150, .T. ) ;
#50 = AXIS2_PLACEMENT_3D ( 'NONE', #228, #70, #186 ) ;
#51 = MANIFOLD_SOLID_BREP ( 'Pøidat vysunutím3', #226 ) ;
#52 = DIRECTION ( 'NONE',  ( 1.000000000000000000, 0.000000000000000000, -0.000000000000000000 ) ) ;
#53 = AXIS2_PLACEMENT_3D ( 'NONE', #117, #163, #18 ) ;
#54 = AXIS2_PLACEMENT_3D ( 'NONE', #147, #246, #208 ) ;
#55 = APPROVAL ( #167, 'NEURÈENÝ' ) ;
#56 = ORIENTED_EDGE ( 'NONE', *, *, #34, .T. ) ;
#57 = DIRECTION ( 'NONE',  ( -0.000000000000000000, -0.000000000000000000, -1.000000000000000000 ) ) ;
#58 = CIRCLE ( 'NONE', #75, 4.250000000000000000 ) ;
#59 = VERTEX_POINT ( 'NONE', #78 ) ;
#60 = COORDINATED_UNIVERSAL_TIME_OFFSET ( 1, 0, .AHEAD. ) ;
#61 = CARTESIAN_POINT ( 'NONE',  ( 0.000000000000000000, 0.000000000000000000, 5.000000000000000000 ) ) ;
#62 = CALENDAR_DATE ( 2022, 7, 7 ) ;
#63 = EDGE_CURVE ( 'NONE', #189, #46, #125, .T. ) ;
#64 = VECTOR ( 'NONE', #65, 1000.000000000000000 ) ;
#65 = DIRECTION ( 'NONE',  ( -0.000000000000000000, -0.000000000000000000, -1.000000000000000000 ) ) ;
#66 = DATE_AND_TIME ( #86, #172 ) ;
#67 = ORIENTED_EDGE ( 'NONE', *, *, #63, .F. ) ;
#68 = CARTESIAN_POINT ( 'NONE',  ( 4.250000000000000000, 5.204748896376250699E-16, 320.0000000000000000 ) ) ;
#69 = EDGE_LOOP ( 'NONE', ( #162, #81 ) ) ;
#70 = DIRECTION ( 'NONE',  ( 0.000000000000000000, 0.000000000000000000, 1.000000000000000000 ) ) ;
#71 = LOCAL_TIME ( 19, 29, 59.00000000000000000, #22 ) ;
#72 = APPLICATION_PROTOCOL_DEFINITION ( 'international standard', 'config_control_design', 1994, #173 ) ;
#73 = EDGE_CURVE ( 'NONE', #59, #101, #87, .T. ) ;
#74 = VERTEX_POINT ( 'NONE', #136 ) ;
#75 = AXIS2_PLACEMENT_3D ( 'NONE', #130, #204, #32 ) ;
#76 = ORIENTED_EDGE ( 'NONE', *, *, #42, .T. ) ;
#77 = APPROVAL_PERSON_ORGANIZATION ( #1, #94, #122 ) ;
#78 = CARTESIAN_POINT ( 'NONE',  ( 4.250000000000000000, 5.204748896376250699E-16, 5.000000000000000000 ) ) ;
#79 = CARTESIAN_POINT ( 'NONE',  ( -7.000000000000000000, 0.000000000000000000, 5.000000000000000000 ) ) ;
#80 = CALENDAR_DATE ( 2022, 7, 7 ) ;
#81 = ORIENTED_EDGE ( 'NONE', *, *, #73, .F. ) ;
#82 = DIRECTION ( 'NONE',  ( -1.000000000000000000, 0.000000000000000000, 0.000000000000000000 ) ) ;
#83 = ORIENTED_EDGE ( 'NONE', *, *, #254, .T. ) ;
#84 = EDGE_LOOP ( 'NONE', ( #138, #26, #211, #76 ) ) ;
#85 = CARTESIAN_POINT ( 'NONE',  ( 4.250000000000000000, 5.204748896376250699E-16, 320.0000000000000000 ) ) ;
#86 = CALENDAR_DATE ( 2022, 7, 7 ) ;
#87 = CIRCLE ( 'NONE', #132, 4.250000000000000000 ) ;
#88 = CARTESIAN_POINT ( 'NONE',  ( 0.000000000000000000, 0.000000000000000000, 0.000000000000000000 ) ) ;
#89 = DIRECTION ( 'NONE',  ( -0.000000000000000000, -0.000000000000000000, -1.000000000000000000 ) ) ;
#90 = DIRECTION ( 'NONE',  ( -1.000000000000000000, 0.000000000000000000, 0.000000000000000000 ) ) ;
#91 = MECHANICAL_CONTEXT ( 'NONE', #173, 'mechanical' ) ;
#92 = EDGE_LOOP ( 'NONE', ( #20, #56 ) ) ;
#93 = EDGE_LOOP ( 'NONE', ( #158, #67, #4, #83 ) ) ;
#94 = APPROVAL ( #219, 'NEURÈENÝ' ) ;
#95 = DIRECTION ( 'NONE',  ( -0.000000000000000000, -0.000000000000000000, -1.000000000000000000 ) ) ;
#96 = FACE_OUTER_BOUND ( 'NONE', #2, .T. ) ;
#97 = APPROVAL_DATE_TIME ( #66, #55 ) ;
#98 = FACE_OUTER_BOUND ( 'NONE', #112, .T. ) ;
#99 = PERSON_AND_ORGANIZATION ( #133, #214 ) ;
#100 = SECURITY_CLASSIFICATION ( '', '', #118 ) ;
#101 = VERTEX_POINT ( 'NONE', #183 ) ;
#102 = LINE ( 'NONE', #202, #48 ) ;
#103 = DATE_TIME_ROLE ( 'creation_date' ) ;
#104 = CARTESIAN_POINT ( 'NONE',  ( 0.000000000000000000, 0.000000000000000000, 5.000000000000000000 ) ) ;
#105 = CC_DESIGN_PERSON_AND_ORGANIZATION_ASSIGNMENT ( #239, #45, ( #30 ) ) ;
#106 = DIRECTION ( 'NONE',  ( 1.000000000000000000, 0.000000000000000000, -0.000000000000000000 ) ) ;
#107 = UNCERTAINTY_MEASURE_WITH_UNIT (LENGTH_MEASURE( 1.000000000000000082E-05 ), #205, 'distance_accuracy_value', 'NONE');
#108 = ORIENTED_EDGE ( 'NONE', *, *, #111, .F. ) ;
#109 = PLANE ( 'NONE',  #245 ) ;
#110 = ADVANCED_FACE ( 'NONE', ( #218 ), #235, .T. ) ;
#111 = EDGE_CURVE ( 'NONE', #5, #199, #181, .T. ) ;
#112 = EDGE_LOOP ( 'NONE', ( #251, #49 ) ) ;
#113 = EDGE_CURVE ( 'NONE', #189, #101, #102, .T. ) ;
#114 = AXIS2_PLACEMENT_3D ( 'NONE', #142, #193, #220 ) ;
#115 = FACE_OUTER_BOUND ( 'NONE', #93, .T. ) ;
#116 = CARTESIAN_POINT ( 'NONE',  ( 0.000000000000000000, 0.000000000000000000, 320.0000000000000000 ) ) ;
#117 = CARTESIAN_POINT ( 'NONE',  ( 0.000000000000000000, 0.000000000000000000, 0.000000000000000000 ) ) ;
#118 = SECURITY_CLASSIFICATION_LEVEL ( 'unclassified' ) ;
#119 = LOCAL_TIME ( 19, 29, 59.00000000000000000, #60 ) ;
#120 = ORIENTED_EDGE ( 'NONE', *, *, #150, .F. ) ;
#121 = DIRECTION ( 'NONE',  ( 0.000000000000000000, 0.000000000000000000, 1.000000000000000000 ) ) ;
#122 = APPROVAL_ROLE ( '' ) ;
#123 = DIRECTION ( 'NONE',  ( 0.000000000000000000, 0.000000000000000000, 1.000000000000000000 ) ) ;
#124 = PERSON_AND_ORGANIZATION ( #133, #214 ) ;
#125 = CIRCLE ( 'NONE', #175, 4.250000000000000000 ) ;
#126 = CARTESIAN_POINT ( 'NONE',  ( 7.000000000000000000, 8.572527594031473190E-16, 5.000000000000000000 ) ) ;
#127 =( GEOMETRIC_REPRESENTATION_CONTEXT ( 3 ) GLOBAL_UNCERTAINTY_ASSIGNED_CONTEXT ( ( #107 ) ) GLOBAL_UNIT_ASSIGNED_CONTEXT ( ( #205, #169, #227 ) ) REPRESENTATION_CONTEXT ( 'NONE', 'WORKASPACE' ) );
#128 = CC_DESIGN_SECURITY_CLASSIFICATION ( #100, ( #30 ) ) ;
#129 = PRODUCT_DEFINITION_SHAPE ( 'NONE', 'NONE',  #17 ) ;
#130 = CARTESIAN_POINT ( 'NONE',  ( 0.000000000000000000, 0.000000000000000000, 5.000000000000000000 ) ) ;
#131 = FACE_OUTER_BOUND ( 'NONE', #155, .T. ) ;
#132 = AXIS2_PLACEMENT_3D ( 'NONE', #61, #242, #156 ) ;
#133 = PERSON ( 'NEURÈENÝ', 'NEURÈENÝ', 'NEURÈENÝ', ('NEURÈENÝ'), ('NEURÈENÝ'), ('NEURÈENÝ') ) ;
#134 = PRODUCT_RELATED_PRODUCT_CATEGORY ( 'detail', '', ( #217 ) ) ;
#135 = ORIENTED_EDGE ( 'NONE', *, *, #73, .T. ) ;
#136 = CARTESIAN_POINT ( 'NONE',  ( 7.000000000000000000, 8.572527594031473190E-16, 0.000000000000000000 ) ) ;
#137 = APPROVAL_DATE_TIME ( #184, #16 ) ;
#138 = ORIENTED_EDGE ( 'NONE', *, *, #144, .F. ) ;
#139 = FACE_BOUND ( 'NONE', #69, .T. ) ;
#140 = COORDINATED_UNIVERSAL_TIME_OFFSET ( 1, 0, .AHEAD. ) ;
#141 = CIRCLE ( 'NONE', #53, 7.000000000000000000 ) ;
#142 = CARTESIAN_POINT ( 'NONE',  ( 0.000000000000000000, 0.000000000000000000, 5.000000000000000000 ) ) ;
#143 = PERSON_AND_ORGANIZATION_ROLE ( 'creator' ) ;
#144 = EDGE_CURVE ( 'NONE', #187, #74, #44, .T. ) ;
#145 = FACE_OUTER_BOUND ( 'NONE', #43, .T. ) ;
#146 = DIRECTION ( 'NONE',  ( -0.000000000000000000, -0.000000000000000000, -1.000000000000000000 ) ) ;
#147 = CARTESIAN_POINT ( 'NONE',  ( 0.000000000000000000, 0.000000000000000000, 5.000000000000000000 ) ) ;
#148 = APPROVAL_PERSON_ORGANIZATION ( #160, #16, #166 ) ;
#149 = CYLINDRICAL_SURFACE ( 'NONE', #234, 4.250000000000000000 ) ;
#150 = EDGE_CURVE ( 'NONE', #187, #5, #11, .T. ) ;
#151 = ORIENTED_EDGE ( 'NONE', *, *, #42, .F. ) ;
#152 = AXIS2_PLACEMENT_3D ( 'NONE', #174, #213, #38 ) ;
#153 = ADVANCED_FACE ( 'NONE', ( #115 ), #159, .T. ) ;
#154 = ADVANCED_FACE ( 'NONE', ( #139, #98 ), #178, .T. ) ;
#155 = EDGE_LOOP ( 'NONE', ( #196, #237, #135, #13 ) ) ;
#156 = DIRECTION ( 'NONE',  ( 1.000000000000000000, 0.000000000000000000, 0.000000000000000000 ) ) ;
#157 = AXIS2_PLACEMENT_3D ( 'NONE', #222, #176, #23 ) ;
#158 = ORIENTED_EDGE ( 'NONE', *, *, #209, .F. ) ;
#159 = CYLINDRICAL_SURFACE ( 'NONE', #231, 4.250000000000000000 ) ;
#160 = PERSON_AND_ORGANIZATION ( #133, #214 ) ;
#161 = CC_DESIGN_APPROVAL ( #55, ( #17 ) ) ;
#162 = ORIENTED_EDGE ( 'NONE', *, *, #254, .F. ) ;
#163 = DIRECTION ( 'NONE',  ( 0.000000000000000000, 0.000000000000000000, 1.000000000000000000 ) ) ;
#164 = SHAPE_DEFINITION_REPRESENTATION ( #129, #236 ) ;
#165 = DIRECTION ( 'NONE',  ( 0.000000000000000000, 0.000000000000000000, 1.000000000000000000 ) ) ;
#166 = APPROVAL_ROLE ( '' ) ;
#167 = APPROVAL_STATUS ( 'not_yet_approved' ) ;
#168 = FACE_OUTER_BOUND ( 'NONE', #84, .T. ) ;
#169 =( NAMED_UNIT ( * ) PLANE_ANGLE_UNIT ( ) SI_UNIT ( $, .RADIAN. ) );
#170 = DIRECTION ( 'NONE',  ( 0.000000000000000000, 0.000000000000000000, 1.000000000000000000 ) ) ;
#171 = CARTESIAN_POINT ( 'NONE',  ( 0.000000000000000000, 0.000000000000000000, 0.000000000000000000 ) ) ;
#172 = LOCAL_TIME ( 19, 29, 59.00000000000000000, #177 ) ;
#173 = APPLICATION_CONTEXT ( 'configuration controlled 3d designs of mechanical parts and assemblies' ) ;
#174 = CARTESIAN_POINT ( 'NONE',  ( 0.000000000000000000, 0.000000000000000000, 5.000000000000000000 ) ) ;
#175 = AXIS2_PLACEMENT_3D ( 'NONE', #200, #121, #36 ) ;
#176 = DIRECTION ( 'NONE',  ( 0.000000000000000000, 0.000000000000000000, 1.000000000000000000 ) ) ;
#177 = COORDINATED_UNIVERSAL_TIME_OFFSET ( 1, 0, .AHEAD. ) ;
#178 = PLANE ( 'NONE',  #191 ) ;
#179 = APPROVAL_STATUS ( 'not_yet_approved' ) ;
#180 = CC_DESIGN_PERSON_AND_ORGANIZATION_ASSIGNMENT ( #99, #3, ( #100 ) ) ;
#181 = LINE ( 'NONE', #79, #64 ) ;
#182 = ORIENTED_EDGE ( 'NONE', *, *, #225, .T. ) ;
#183 = CARTESIAN_POINT ( 'NONE',  ( -4.250000000000000000, 0.000000000000000000, 5.000000000000000000 ) ) ;
#184 = DATE_AND_TIME ( #62, #71 ) ;
#185 = CARTESIAN_POINT ( 'NONE',  ( -4.250000000000000000, 0.000000000000000000, 320.0000000000000000 ) ) ;
#186 = DIRECTION ( 'NONE',  ( 1.000000000000000000, 0.000000000000000000, 0.000000000000000000 ) ) ;
#187 = VERTEX_POINT ( 'NONE', #126 ) ;
#188 = DIRECTION ( 'NONE',  ( 0.000000000000000000, 0.000000000000000000, 1.000000000000000000 ) ) ;
#189 = VERTEX_POINT ( 'NONE', #185 ) ;
#190 = LOCAL_TIME ( 19, 29, 59.00000000000000000, #140 ) ;
#191 = AXIS2_PLACEMENT_3D ( 'NONE', #104, #29, #106 ) ;
#192 = EDGE_CURVE ( 'NONE', #5, #187, #210, .T. ) ;
#193 = DIRECTION ( 'NONE',  ( -0.000000000000000000, -0.000000000000000000, -1.000000000000000000 ) ) ;
#194 = DATE_TIME_ROLE ( 'classification_date' ) ;
#195 = CIRCLE ( 'NONE', #241, 4.250000000000000000 ) ;
#196 = ORIENTED_EDGE ( 'NONE', *, *, #34, .F. ) ;
#197 = PERSON_AND_ORGANIZATION ( #133, #214 ) ;
#198 = ADVANCED_FACE ( 'NONE', ( #168 ), #47, .T. ) ;
#199 = VERTEX_POINT ( 'NONE', #10 ) ;
#200 = CARTESIAN_POINT ( 'NONE',  ( 0.000000000000000000, 0.000000000000000000, 320.0000000000000000 ) ) ;
#201 = COORDINATED_UNIVERSAL_TIME_OFFSET ( 1, 0, .AHEAD. ) ;
#202 = CARTESIAN_POINT ( 'NONE',  ( -4.250000000000000000, 0.000000000000000000, 320.0000000000000000 ) ) ;
#203 = PERSON_AND_ORGANIZATION ( #133, #214 ) ;
#204 = DIRECTION ( 'NONE',  ( 0.000000000000000000, 0.000000000000000000, 1.000000000000000000 ) ) ;
#205 =( LENGTH_UNIT ( ) NAMED_UNIT ( * ) SI_UNIT ( .MILLI., .METRE. ) );
#206 = CARTESIAN_POINT ( 'NONE',  ( 0.000000000000000000, 0.000000000000000000, 320.0000000000000000 ) ) ;
#207 = APPLICATION_CONTEXT ( 'configuration controlled 3d designs of mechanical parts and assemblies' ) ;
#208 = DIRECTION ( 'NONE',  ( -1.000000000000000000, 0.000000000000000000, 0.000000000000000000 ) ) ;
#209 = EDGE_CURVE ( 'NONE', #46, #59, #12, .T. ) ;
#210 = CIRCLE ( 'NONE', #50, 7.000000000000000000 ) ;
#211 = ORIENTED_EDGE ( 'NONE', *, *, #111, .T. ) ;
#212 = CC_DESIGN_APPROVAL ( #16, ( #30 ) ) ;
#213 = DIRECTION ( 'NONE',  ( 0.000000000000000000, 0.000000000000000000, 1.000000000000000000 ) ) ;
#214 = ORGANIZATION ( 'NEURÈENÝ', 'NEURÈENÝ', '' ) ;
#215 = PERSON_AND_ORGANIZATION ( #133, #214 ) ;
#216 = CC_DESIGN_APPROVAL ( #94, ( #100 ) ) ;
#217 = PRODUCT ( '1614', '1614', '', ( #91 ) ) ;
#218 = FACE_OUTER_BOUND ( 'NONE', #92, .T. ) ;
#219 = APPROVAL_STATUS ( 'not_yet_approved' ) ;
#220 = DIRECTION ( 'NONE',  ( -1.000000000000000000, 0.000000000000000000, 0.000000000000000000 ) ) ;
#221 = PERSON_AND_ORGANIZATION_ROLE ( 'design_supplier' ) ;
#222 = CARTESIAN_POINT ( 'NONE',  ( 0.000000000000000000, 0.000000000000000000, 320.0000000000000000 ) ) ;
#223 = DATE_AND_TIME ( #244, #119 ) ;
#224 = CIRCLE ( 'NONE', #232, 7.000000000000000000 ) ;
#225 = EDGE_CURVE ( 'NONE', #74, #199, #224, .T. ) ;
#226 = CLOSED_SHELL ( 'NONE', ( #230, #27, #198, #154, #247, #153, #110 ) ) ;
#227 =( NAMED_UNIT ( * ) SI_UNIT ( $, .STERADIAN. ) SOLID_ANGLE_UNIT ( ) );
#228 = CARTESIAN_POINT ( 'NONE',  ( 0.000000000000000000, 0.000000000000000000, 5.000000000000000000 ) ) ;
#229 = CC_DESIGN_PERSON_AND_ORGANIZATION_ASSIGNMENT ( #203, #221, ( #30 ) ) ;
#230 = ADVANCED_FACE ( 'NONE', ( #131 ), #149, .T. ) ;
#231 = AXIS2_PLACEMENT_3D ( 'NONE', #116, #21, #82 ) ;
#232 = AXIS2_PLACEMENT_3D ( 'NONE', #9, #123, #31 ) ;
#233 = DESIGN_CONTEXT ( 'detailed design', #207, 'design' ) ;
#234 = AXIS2_PLACEMENT_3D ( 'NONE', #206, #89, #90 ) ;
#235 = PLANE ( 'NONE',  #157 ) ;
#236 = ADVANCED_BREP_SHAPE_REPRESENTATION ( '1614', ( #51, #33 ), #127 ) ;
#237 = ORIENTED_EDGE ( 'NONE', *, *, #209, .T. ) ;
#238 = CARTESIAN_POINT ( 'NONE',  ( -7.000000000000000000, 0.000000000000000000, 5.000000000000000000 ) ) ;
#239 = PERSON_AND_ORGANIZATION ( #133, #214 ) ;
#240 = CARTESIAN_POINT ( 'NONE',  ( 0.000000000000000000, 0.000000000000000000, 320.0000000000000000 ) ) ;
#241 = AXIS2_PLACEMENT_3D ( 'NONE', #240, #165, #41 ) ;
#242 = DIRECTION ( 'NONE',  ( 0.000000000000000000, 0.000000000000000000, 1.000000000000000000 ) ) ;
#243 = CALENDAR_DATE ( 2022, 7, 7 ) ;
#244 = CALENDAR_DATE ( 2022, 7, 7 ) ;
#245 = AXIS2_PLACEMENT_3D ( 'NONE', #88, #170, #52 ) ;
#246 = DIRECTION ( 'NONE',  ( -0.000000000000000000, -0.000000000000000000, -1.000000000000000000 ) ) ;
#247 = ADVANCED_FACE ( 'NONE', ( #145 ), #109, .F. ) ;
#248 = CC_DESIGN_PERSON_AND_ORGANIZATION_ASSIGNMENT ( #215, #6, ( #217 ) ) ;
#249 = CC_DESIGN_PERSON_AND_ORGANIZATION_ASSIGNMENT ( #124, #143, ( #17 ) ) ;
#250 = DIRECTION ( 'NONE',  ( 1.000000000000000000, 0.000000000000000000, 0.000000000000000000 ) ) ;
#251 = ORIENTED_EDGE ( 'NONE', *, *, #192, .T. ) ;
#252 = LOCAL_TIME ( 19, 29, 59.00000000000000000, #201 ) ;
#253 = APPROVAL_PERSON_ORGANIZATION ( #197, #55, #28 ) ;
#254 = EDGE_CURVE ( 'NONE', #101, #59, #58, .T. ) ;
#255 = CYLINDRICAL_SURFACE ( 'NONE', #114, 7.000000000000000000 ) ;
ENDSEC;
END-ISO-10303-21;
