ISO-10303-21;
HEADER;
FILE_DESCRIPTION (( 'STEP AP203' ),
    '1' );
FILE_NAME ('a1c2.STEP',
    '2022-07-07T17:35:51',
    ( '' ),
    ( '' ),
    'SwSTEP 2.0',
    'SolidWorks 2019',
    '' );
FILE_SCHEMA (( 'CONFIG_CONTROL_DESIGN' ));
ENDSEC;

DATA;
#1 = AXIS2_PLACEMENT_3D ( 'NONE', #160, #8, #98 ) ;
#2 = VECTOR ( 'NONE', #247, 1000.000000000000000 ) ;
#3 = CARTESIAN_POINT ( 'NONE',  ( 0.000000000000000000, 0.000000000000000000, 255.0000000000000000 ) ) ;
#4 = DIRECTION ( 'NONE',  ( 0.000000000000000000, 0.000000000000000000, 1.000000000000000000 ) ) ;
#5 = CARTESIAN_POINT ( 'NONE',  ( 0.000000000000000000, 0.000000000000000000, 5.000000000000000000 ) ) ;
#6 = AXIS2_PLACEMENT_3D ( 'NONE', #250, #166, #47 ) ;
#7 = PERSON_AND_ORGANIZATION ( #255, #125 ) ;
#8 = DIRECTION ( 'NONE',  ( 0.000000000000000000, 0.000000000000000000, 1.000000000000000000 ) ) ;
#9 = FACE_OUTER_BOUND ( 'NONE', #124, .T. ) ;
#10 = CC_DESIGN_PERSON_AND_ORGANIZATION_ASSIGNMENT ( #36, #28, ( #24 ) ) ;
#11 = COORDINATED_UNIVERSAL_TIME_OFFSET ( 1, 0, .AHEAD. ) ;
#12 = ORIENTED_EDGE ( 'NONE', *, *, #182, .F. ) ;
#13 =( NAMED_UNIT ( * ) PLANE_ANGLE_UNIT ( ) SI_UNIT ( $, .RADIAN. ) );
#14 = DIRECTION ( 'NONE',  ( 0.000000000000000000, 0.000000000000000000, 1.000000000000000000 ) ) ;
#15 = COORDINATED_UNIVERSAL_TIME_OFFSET ( 1, 0, .AHEAD. ) ;
#16 = VECTOR ( 'NONE', #176, 1000.000000000000000 ) ;
#17 = AXIS2_PLACEMENT_3D ( 'NONE', #147, #226, #51 ) ;
#18 = ORIENTED_EDGE ( 'NONE', *, *, #39, .T. ) ;
#19 = EDGE_CURVE ( 'NONE', #27, #167, #215, .T. ) ;
#20 = CC_DESIGN_APPROVAL ( #63, ( #162 ) ) ;
#21 = UNCERTAINTY_MEASURE_WITH_UNIT (LENGTH_MEASURE( 1.000000000000000082E-05 ), #146, 'distance_accuracy_value', 'NONE');
#22 = DIRECTION ( 'NONE',  ( 1.000000000000000000, 0.000000000000000000, 0.000000000000000000 ) ) ;
#23 = AXIS2_PLACEMENT_3D ( 'NONE', #5, #75, #151 ) ;
#24 = PRODUCT_DEFINITION_FORMATION_WITH_SPECIFIED_SOURCE ( 'LIBOVOLNÝ', '', #121, .NOT_KNOWN. ) ;
#25 = DIRECTION ( 'NONE',  ( 0.000000000000000000, 0.000000000000000000, 1.000000000000000000 ) ) ;
#26 = DIRECTION ( 'NONE',  ( -0.000000000000000000, -0.000000000000000000, -1.000000000000000000 ) ) ;
#27 = VERTEX_POINT ( 'NONE', #50 ) ;
#28 = PERSON_AND_ORGANIZATION_ROLE ( 'design_supplier' ) ;
#29 = ORIENTED_EDGE ( 'NONE', *, *, #19, .F. ) ;
#30 = EDGE_CURVE ( 'NONE', #113, #92, #183, .T. ) ;
#31 = CARTESIAN_POINT ( 'NONE',  ( -3.500000000000000000, 0.000000000000000000, 255.0000000000000000 ) ) ;
#32 = AXIS2_PLACEMENT_3D ( 'NONE', #225, #25, #136 ) ;
#33 = PERSON_AND_ORGANIZATION ( #255, #125 ) ;
#34 = EDGE_LOOP ( 'NONE', ( #199, #231, #44, #42 ) ) ;
#35 = CYLINDRICAL_SURFACE ( 'NONE', #58, 3.500000000000000000 ) ;
#36 = PERSON_AND_ORGANIZATION ( #255, #125 ) ;
#37 = CARTESIAN_POINT ( 'NONE',  ( 0.000000000000000000, 0.000000000000000000, 255.0000000000000000 ) ) ;
#38 = DATE_AND_TIME ( #59, #117 ) ;
#39 = EDGE_CURVE ( 'NONE', #43, #46, #143, .T. ) ;
#40 = AXIS2_PLACEMENT_3D ( 'NONE', #72, #185, #171 ) ;
#41 = CC_DESIGN_PERSON_AND_ORGANIZATION_ASSIGNMENT ( #178, #82, ( #109 ) ) ;
#42 = ORIENTED_EDGE ( 'NONE', *, *, #145, .T. ) ;
#43 = VERTEX_POINT ( 'NONE', #83 ) ;
#44 = ORIENTED_EDGE ( 'NONE', *, *, #144, .T. ) ;
#45 = DIRECTION ( 'NONE',  ( -0.000000000000000000, -0.000000000000000000, -1.000000000000000000 ) ) ;
#46 = VERTEX_POINT ( 'NONE', #205 ) ;
#47 = DIRECTION ( 'NONE',  ( 1.000000000000000000, 0.000000000000000000, 0.000000000000000000 ) ) ;
#48 = APPROVAL_PERSON_ORGANIZATION ( #120, #201, #52 ) ;
#49 = DATE_AND_TIME ( #112, #89 ) ;
#50 = CARTESIAN_POINT ( 'NONE',  ( -6.000000000000000888, 0.000000000000000000, 0.000000000000000000 ) ) ;
#51 = DIRECTION ( 'NONE',  ( 1.000000000000000000, 0.000000000000000000, -0.000000000000000000 ) ) ;
#52 = APPROVAL_ROLE ( '' ) ;
#53 = ORIENTED_EDGE ( 'NONE', *, *, #177, .F. ) ;
#54 = LINE ( 'NONE', #206, #164 ) ;
#55 = DIRECTION ( 'NONE',  ( 1.000000000000000000, 0.000000000000000000, 0.000000000000000000 ) ) ;
#56 = CARTESIAN_POINT ( 'NONE',  ( 0.000000000000000000, 0.000000000000000000, 5.000000000000000000 ) ) ;
#57 =( NAMED_UNIT ( * ) SI_UNIT ( $, .STERADIAN. ) SOLID_ANGLE_UNIT ( ) );
#58 = AXIS2_PLACEMENT_3D ( 'NONE', #204, #26, #96 ) ;
#59 = CALENDAR_DATE ( 2022, 7, 7 ) ;
#60 = CC_DESIGN_SECURITY_CLASSIFICATION ( #109, ( #24 ) ) ;
#61 = MANIFOLD_SOLID_BREP ( 'Pøidat vysunutím3', #91 ) ;
#62 = ORIENTED_EDGE ( 'NONE', *, *, #127, .F. ) ;
#63 = APPROVAL ( #141, 'NEURÈENÝ' ) ;
#64 = AXIS2_PLACEMENT_3D ( 'NONE', #137, #211, #22 ) ;
#65 = APPROVAL_PERSON_ORGANIZATION ( #227, #86, #133 ) ;
#66 = ORIENTED_EDGE ( 'NONE', *, *, #149, .F. ) ;
#67 = AXIS2_PLACEMENT_3D ( 'NONE', #208, #246, #249 ) ;
#68 = EDGE_LOOP ( 'NONE', ( #94, #12 ) ) ;
#69 = ADVANCED_BREP_SHAPE_REPRESENTATION ( 'a1c2', ( #61, #235 ), #196 ) ;
#70 = ADVANCED_FACE ( 'NONE', ( #175, #134 ), #170, .T. ) ;
#71 = PLANE ( 'NONE',  #17 ) ;
#72 = CARTESIAN_POINT ( 'NONE',  ( 0.000000000000000000, 0.000000000000000000, 5.000000000000000000 ) ) ;
#73 = AXIS2_PLACEMENT_3D ( 'NONE', #56, #239, #119 ) ;
#74 = ORIENTED_EDGE ( 'NONE', *, *, #19, .T. ) ;
#75 = DIRECTION ( 'NONE',  ( 0.000000000000000000, 0.000000000000000000, 1.000000000000000000 ) ) ;
#76 = EDGE_LOOP ( 'NONE', ( #237, #219, #210, #53 ) ) ;
#77 = FACE_OUTER_BOUND ( 'NONE', #123, .T. ) ;
#78 = DATE_TIME_ROLE ( 'creation_date' ) ;
#79 = ORIENTED_EDGE ( 'NONE', *, *, #30, .T. ) ;
#80 = FACE_OUTER_BOUND ( 'NONE', #34, .T. ) ;
#81 = APPLICATION_CONTEXT ( 'configuration controlled 3d designs of mechanical parts and assemblies' ) ;
#82 = PERSON_AND_ORGANIZATION_ROLE ( 'classification_officer' ) ;
#83 = CARTESIAN_POINT ( 'NONE',  ( 6.000000000000000888, 7.347880794884120722E-16, 5.000000000000000000 ) ) ;
#84 = ADVANCED_FACE ( 'NONE', ( #153 ), #228, .T. ) ;
#85 = MECHANICAL_CONTEXT ( 'NONE', #81, 'mechanical' ) ;
#86 = APPROVAL ( #138, 'NEURÈENÝ' ) ;
#87 = PRODUCT_RELATED_PRODUCT_CATEGORY ( 'detail', '', ( #121 ) ) ;
#88 = ADVANCED_FACE ( 'NONE', ( #156 ), #192, .T. ) ;
#89 = LOCAL_TIME ( 19, 35, 51.00000000000000000, #11 ) ;
#90 = EDGE_CURVE ( 'NONE', #92, #113, #122, .T. ) ;
#91 = CLOSED_SHELL ( 'NONE', ( #221, #88, #126, #70, #95, #173, #84 ) ) ;
#92 = VERTEX_POINT ( 'NONE', #179 ) ;
#93 = ORIENTED_EDGE ( 'NONE', *, *, #177, .T. ) ;
#94 = ORIENTED_EDGE ( 'NONE', *, *, #145, .F. ) ;
#95 = ADVANCED_FACE ( 'NONE', ( #252 ), #71, .F. ) ;
#96 = DIRECTION ( 'NONE',  ( -1.000000000000000000, 0.000000000000000000, 0.000000000000000000 ) ) ;
#97 = APPROVAL_DATE_TIME ( #49, #63 ) ;
#98 = DIRECTION ( 'NONE',  ( 1.000000000000000000, 0.000000000000000000, 0.000000000000000000 ) ) ;
#99 = PERSON_AND_ORGANIZATION ( #255, #125 ) ;
#100 = EDGE_LOOP ( 'NONE', ( #29, #66 ) ) ;
#101 = PERSON_AND_ORGANIZATION_ROLE ( 'creator' ) ;
#102 = DIRECTION ( 'NONE',  ( 1.000000000000000000, 0.000000000000000000, 0.000000000000000000 ) ) ;
#103 = CALENDAR_DATE ( 2022, 7, 7 ) ;
#104 = APPLICATION_CONTEXT ( 'configuration controlled 3d designs of mechanical parts and assemblies' ) ;
#105 = ORIENTED_EDGE ( 'NONE', *, *, #90, .F. ) ;
#106 = EDGE_CURVE ( 'NONE', #46, #43, #158, .T. ) ;
#107 = ORIENTED_EDGE ( 'NONE', *, *, #106, .T. ) ;
#108 = LINE ( 'NONE', #223, #16 ) ;
#109 = SECURITY_CLASSIFICATION ( '', '', #118 ) ;
#110 = DIRECTION ( 'NONE',  ( 1.000000000000000000, 0.000000000000000000, -0.000000000000000000 ) ) ;
#111 = DIRECTION ( 'NONE',  ( 1.000000000000000000, 0.000000000000000000, 0.000000000000000000 ) ) ;
#112 = CALENDAR_DATE ( 2022, 7, 7 ) ;
#113 = VERTEX_POINT ( 'NONE', #31 ) ;
#114 = CARTESIAN_POINT ( 'NONE',  ( 6.000000000000000888, 7.347880794884120722E-16, 0.000000000000000000 ) ) ;
#115 = DIRECTION ( 'NONE',  ( 0.000000000000000000, 0.000000000000000000, 1.000000000000000000 ) ) ;
#116 = CARTESIAN_POINT ( 'NONE',  ( 0.000000000000000000, 0.000000000000000000, 255.0000000000000000 ) ) ;
#117 = LOCAL_TIME ( 19, 35, 51.00000000000000000, #169 ) ;
#118 = SECURITY_CLASSIFICATION_LEVEL ( 'unclassified' ) ;
#119 = DIRECTION ( 'NONE',  ( -1.000000000000000000, 0.000000000000000000, 0.000000000000000000 ) ) ;
#120 = PERSON_AND_ORGANIZATION ( #255, #125 ) ;
#121 = PRODUCT ( 'a1c2', 'a1c2', '', ( #85 ) ) ;
#122 = CIRCLE ( 'NONE', #241, 3.500000000000000000 ) ;
#123 = EDGE_LOOP ( 'NONE', ( #62, #165, #93, #74 ) ) ;
#124 = EDGE_LOOP ( 'NONE', ( #105, #202, #213, #150 ) ) ;
#125 = ORGANIZATION ( 'NEURÈENÝ', 'NEURÈENÝ', '' ) ;
#126 = ADVANCED_FACE ( 'NONE', ( #77 ), #244, .T. ) ;
#127 = EDGE_CURVE ( 'NONE', #43, #167, #135, .T. ) ;
#128 = DESIGN_CONTEXT ( 'detailed design', #104, 'design' ) ;
#129 = DIRECTION ( 'NONE',  ( 0.000000000000000000, 0.000000000000000000, 1.000000000000000000 ) ) ;
#130 = VECTOR ( 'NONE', #154, 1000.000000000000000 ) ;
#131 = CARTESIAN_POINT ( 'NONE',  ( -3.500000000000000000, 0.000000000000000000, 5.000000000000000000 ) ) ;
#132 = LOCAL_TIME ( 19, 35, 51.00000000000000000, #189 ) ;
#133 = APPROVAL_ROLE ( '' ) ;
#134 = FACE_OUTER_BOUND ( 'NONE', #243, .T. ) ;
#135 = LINE ( 'NONE', #188, #2 ) ;
#136 = DIRECTION ( 'NONE',  ( 1.000000000000000000, 0.000000000000000000, 0.000000000000000000 ) ) ;
#137 = CARTESIAN_POINT ( 'NONE',  ( 0.000000000000000000, 0.000000000000000000, 0.000000000000000000 ) ) ;
#138 = APPROVAL_STATUS ( 'not_yet_approved' ) ;
#139 = EDGE_LOOP ( 'NONE', ( #79, #217 ) ) ;
#140 = CIRCLE ( 'NONE', #23, 3.500000000000000000 ) ;
#141 = APPROVAL_STATUS ( 'not_yet_approved' ) ;
#142 = AXIS2_PLACEMENT_3D ( 'NONE', #3, #191, #229 ) ;
#143 = CIRCLE ( 'NONE', #1, 6.000000000000000888 ) ;
#144 = EDGE_CURVE ( 'NONE', #113, #186, #240, .T. ) ;
#145 = EDGE_CURVE ( 'NONE', #186, #242, #140, .T. ) ;
#146 =( LENGTH_UNIT ( ) NAMED_UNIT ( * ) SI_UNIT ( .MILLI., .METRE. ) );
#147 = CARTESIAN_POINT ( 'NONE',  ( 0.000000000000000000, 0.000000000000000000, 0.000000000000000000 ) ) ;
#148 = CYLINDRICAL_SURFACE ( 'NONE', #142, 3.500000000000000000 ) ;
#149 = EDGE_CURVE ( 'NONE', #167, #27, #163, .T. ) ;
#150 = ORIENTED_EDGE ( 'NONE', *, *, #144, .F. ) ;
#151 = DIRECTION ( 'NONE',  ( 1.000000000000000000, 0.000000000000000000, 0.000000000000000000 ) ) ;
#152 = DATE_TIME_ROLE ( 'classification_date' ) ;
#153 = FACE_OUTER_BOUND ( 'NONE', #139, .T. ) ;
#154 = DIRECTION ( 'NONE',  ( -0.000000000000000000, -0.000000000000000000, -1.000000000000000000 ) ) ;
#155 = CALENDAR_DATE ( 2022, 7, 7 ) ;
#156 = FACE_OUTER_BOUND ( 'NONE', #76, .T. ) ;
#157 = CARTESIAN_POINT ( 'NONE',  ( 0.000000000000000000, 0.000000000000000000, 5.000000000000000000 ) ) ;
#158 = CIRCLE ( 'NONE', #6, 6.000000000000000888 ) ;
#159 = PERSON_AND_ORGANIZATION_ROLE ( 'design_owner' ) ;
#160 = CARTESIAN_POINT ( 'NONE',  ( 0.000000000000000000, 0.000000000000000000, 5.000000000000000000 ) ) ;
#161 = APPLICATION_PROTOCOL_DEFINITION ( 'international standard', 'config_control_design', 1994, #104 ) ;
#162 = PRODUCT_DEFINITION ( 'NEZNÁMÝ', '', #24, #128 ) ;
#163 = CIRCLE ( 'NONE', #64, 6.000000000000000888 ) ;
#164 = VECTOR ( 'NONE', #45, 1000.000000000000000 ) ;
#165 = ORIENTED_EDGE ( 'NONE', *, *, #106, .F. ) ;
#166 = DIRECTION ( 'NONE',  ( 0.000000000000000000, 0.000000000000000000, 1.000000000000000000 ) ) ;
#167 = VERTEX_POINT ( 'NONE', #114 ) ;
#168 = CARTESIAN_POINT ( 'NONE',  ( 3.500000000000000000, 4.286263797015736595E-16, 5.000000000000000000 ) ) ;
#169 = COORDINATED_UNIVERSAL_TIME_OFFSET ( 1, 0, .AHEAD. ) ;
#170 = PLANE ( 'NONE',  #67 ) ;
#171 = DIRECTION ( 'NONE',  ( -1.000000000000000000, 0.000000000000000000, 0.000000000000000000 ) ) ;
#172 = AXIS2_PLACEMENT_3D ( 'NONE', #157, #222, #111 ) ;
#173 = ADVANCED_FACE ( 'NONE', ( #80 ), #148, .T. ) ;
#174 = CALENDAR_DATE ( 2022, 7, 7 ) ;
#175 = FACE_BOUND ( 'NONE', #68, .T. ) ;
#176 = DIRECTION ( 'NONE',  ( -0.000000000000000000, -0.000000000000000000, -1.000000000000000000 ) ) ;
#177 = EDGE_CURVE ( 'NONE', #46, #27, #108, .T. ) ;
#178 = PERSON_AND_ORGANIZATION ( #255, #125 ) ;
#179 = CARTESIAN_POINT ( 'NONE',  ( 3.500000000000000000, 4.286263797015736595E-16, 255.0000000000000000 ) ) ;
#180 = APPROVAL_DATE_TIME ( #212, #86 ) ;
#181 = CC_DESIGN_DATE_AND_TIME_ASSIGNMENT ( #38, #152, ( #109 ) ) ;
#182 = EDGE_CURVE ( 'NONE', #242, #186, #218, .T. ) ;
#183 = CIRCLE ( 'NONE', #200, 3.500000000000000000 ) ;
#184 = APPROVAL_PERSON_ORGANIZATION ( #7, #63, #214 ) ;
#185 = DIRECTION ( 'NONE',  ( -0.000000000000000000, -0.000000000000000000, -1.000000000000000000 ) ) ;
#186 = VERTEX_POINT ( 'NONE', #131 ) ;
#187 = CC_DESIGN_DATE_AND_TIME_ASSIGNMENT ( #248, #78, ( #162 ) ) ;
#188 = CARTESIAN_POINT ( 'NONE',  ( 6.000000000000000888, 7.347880794884120722E-16, 5.000000000000000000 ) ) ;
#189 = COORDINATED_UNIVERSAL_TIME_OFFSET ( 1, 0, .AHEAD. ) ;
#190 = DIRECTION ( 'NONE',  ( 1.000000000000000000, 0.000000000000000000, 0.000000000000000000 ) ) ;
#191 = DIRECTION ( 'NONE',  ( -0.000000000000000000, -0.000000000000000000, -1.000000000000000000 ) ) ;
#192 = CYLINDRICAL_SURFACE ( 'NONE', #73, 6.000000000000000888 ) ;
#193 = CC_DESIGN_PERSON_AND_ORGANIZATION_ASSIGNMENT ( #33, #101, ( #162 ) ) ;
#194 = CARTESIAN_POINT ( 'NONE',  ( 0.000000000000000000, 0.000000000000000000, 255.0000000000000000 ) ) ;
#195 = APPROVAL_STATUS ( 'not_yet_approved' ) ;
#196 =( GEOMETRIC_REPRESENTATION_CONTEXT ( 3 ) GLOBAL_UNCERTAINTY_ASSIGNED_CONTEXT ( ( #21 ) ) GLOBAL_UNIT_ASSIGNED_CONTEXT ( ( #146, #13, #57 ) ) REPRESENTATION_CONTEXT ( 'NONE', 'WORKASPACE' ) );
#197 = LOCAL_TIME ( 19, 35, 51.00000000000000000, #15 ) ;
#198 = CC_DESIGN_APPROVAL ( #201, ( #109 ) ) ;
#199 = ORIENTED_EDGE ( 'NONE', *, *, #220, .F. ) ;
#200 = AXIS2_PLACEMENT_3D ( 'NONE', #37, #129, #190 ) ;
#201 = APPROVAL ( #195, 'NEURÈENÝ' ) ;
#202 = ORIENTED_EDGE ( 'NONE', *, *, #220, .T. ) ;
#203 = LOCAL_TIME ( 19, 35, 51.00000000000000000, #251 ) ;
#204 = CARTESIAN_POINT ( 'NONE',  ( 0.000000000000000000, 0.000000000000000000, 255.0000000000000000 ) ) ;
#205 = CARTESIAN_POINT ( 'NONE',  ( -6.000000000000000888, 0.000000000000000000, 5.000000000000000000 ) ) ;
#206 = CARTESIAN_POINT ( 'NONE',  ( 3.500000000000000000, 4.286263797015736595E-16, 255.0000000000000000 ) ) ;
#207 = PERSON_AND_ORGANIZATION_ROLE ( 'creator' ) ;
#208 = CARTESIAN_POINT ( 'NONE',  ( 0.000000000000000000, 0.000000000000000000, 5.000000000000000000 ) ) ;
#209 = CARTESIAN_POINT ( 'NONE',  ( -3.500000000000000000, 0.000000000000000000, 255.0000000000000000 ) ) ;
#210 = ORIENTED_EDGE ( 'NONE', *, *, #149, .T. ) ;
#211 = DIRECTION ( 'NONE',  ( 0.000000000000000000, 0.000000000000000000, 1.000000000000000000 ) ) ;
#212 = DATE_AND_TIME ( #155, #203 ) ;
#213 = ORIENTED_EDGE ( 'NONE', *, *, #182, .T. ) ;
#214 = APPROVAL_ROLE ( '' ) ;
#215 = CIRCLE ( 'NONE', #32, 6.000000000000000888 ) ;
#216 = PRODUCT_DEFINITION_SHAPE ( 'NONE', 'NONE',  #162 ) ;
#217 = ORIENTED_EDGE ( 'NONE', *, *, #90, .T. ) ;
#218 = CIRCLE ( 'NONE', #172, 3.500000000000000000 ) ;
#219 = ORIENTED_EDGE ( 'NONE', *, *, #127, .T. ) ;
#220 = EDGE_CURVE ( 'NONE', #92, #242, #54, .T. ) ;
#221 = ADVANCED_FACE ( 'NONE', ( #9 ), #35, .T. ) ;
#222 = DIRECTION ( 'NONE',  ( 0.000000000000000000, 0.000000000000000000, 1.000000000000000000 ) ) ;
#223 = CARTESIAN_POINT ( 'NONE',  ( -6.000000000000000888, 0.000000000000000000, 5.000000000000000000 ) ) ;
#224 = CARTESIAN_POINT ( 'NONE',  ( 0.000000000000000000, 0.000000000000000000, 0.000000000000000000 ) ) ;
#225 = CARTESIAN_POINT ( 'NONE',  ( 0.000000000000000000, 0.000000000000000000, 0.000000000000000000 ) ) ;
#226 = DIRECTION ( 'NONE',  ( 0.000000000000000000, 0.000000000000000000, 1.000000000000000000 ) ) ;
#227 = PERSON_AND_ORGANIZATION ( #255, #125 ) ;
#228 = PLANE ( 'NONE',  #234 ) ;
#229 = DIRECTION ( 'NONE',  ( -1.000000000000000000, 0.000000000000000000, 0.000000000000000000 ) ) ;
#230 = APPLICATION_PROTOCOL_DEFINITION ( 'international standard', 'config_control_design', 1994, #81 ) ;
#231 = ORIENTED_EDGE ( 'NONE', *, *, #30, .F. ) ;
#232 = PERSON_AND_ORGANIZATION ( #255, #125 ) ;
#233 = SHAPE_DEFINITION_REPRESENTATION ( #216, #69 ) ;
#234 = AXIS2_PLACEMENT_3D ( 'NONE', #116, #4, #110 ) ;
#235 = AXIS2_PLACEMENT_3D ( 'NONE', #224, #115, #55 ) ;
#236 = CC_DESIGN_PERSON_AND_ORGANIZATION_ASSIGNMENT ( #99, #159, ( #121 ) ) ;
#237 = ORIENTED_EDGE ( 'NONE', *, *, #39, .F. ) ;
#238 = CC_DESIGN_PERSON_AND_ORGANIZATION_ASSIGNMENT ( #232, #207, ( #24 ) ) ;
#239 = DIRECTION ( 'NONE',  ( -0.000000000000000000, -0.000000000000000000, -1.000000000000000000 ) ) ;
#240 = LINE ( 'NONE', #209, #130 ) ;
#241 = AXIS2_PLACEMENT_3D ( 'NONE', #194, #14, #102 ) ;
#242 = VERTEX_POINT ( 'NONE', #168 ) ;
#243 = EDGE_LOOP ( 'NONE', ( #107, #18 ) ) ;
#244 = CYLINDRICAL_SURFACE ( 'NONE', #40, 6.000000000000000888 ) ;
#245 = DATE_AND_TIME ( #103, #197 ) ;
#246 = DIRECTION ( 'NONE',  ( 0.000000000000000000, 0.000000000000000000, 1.000000000000000000 ) ) ;
#247 = DIRECTION ( 'NONE',  ( -0.000000000000000000, -0.000000000000000000, -1.000000000000000000 ) ) ;
#248 = DATE_AND_TIME ( #174, #132 ) ;
#249 = DIRECTION ( 'NONE',  ( 1.000000000000000000, 0.000000000000000000, -0.000000000000000000 ) ) ;
#250 = CARTESIAN_POINT ( 'NONE',  ( 0.000000000000000000, 0.000000000000000000, 5.000000000000000000 ) ) ;
#251 = COORDINATED_UNIVERSAL_TIME_OFFSET ( 1, 0, .AHEAD. ) ;
#252 = FACE_OUTER_BOUND ( 'NONE', #100, .T. ) ;
#253 = APPROVAL_DATE_TIME ( #245, #201 ) ;
#254 = CC_DESIGN_APPROVAL ( #86, ( #24 ) ) ;
#255 = PERSON ( 'NEURÈENÝ', 'NEURÈENÝ', 'NEURÈENÝ', ('NEURÈENÝ'), ('NEURÈENÝ'), ('NEURÈENÝ') ) ;
ENDSEC;
END-ISO-10303-21;
