ISO-10303-21;
HEADER;
FILE_DESCRIPTION (( 'STEP AP203' ),
    '1' );
FILE_NAME ('3caa.STEP',
    '2022-07-07T17:27:51',
    ( '' ),
    ( '' ),
    'SwSTEP 2.0',
    'SolidWorks 2019',
    '' );
FILE_SCHEMA (( 'CONFIG_CONTROL_DESIGN' ));
ENDSEC;

DATA;
#1 = CC_DESIGN_PERSON_AND_ORGANIZATION_ASSIGNMENT ( #205, #146, ( #185 ) ) ;
#2 = AXIS2_PLACEMENT_3D ( 'NONE', #135, #248, #39 ) ;
#3 = ORGANIZATION ( 'NEURÈENÝ', 'NEURÈENÝ', '' ) ;
#4 = CARTESIAN_POINT ( 'NONE',  ( -8.000000000000000000, 0.000000000000000000, 0.000000000000000000 ) ) ;
#5 = ORIENTED_EDGE ( 'NONE', *, *, #166, .T. ) ;
#6 = FACE_OUTER_BOUND ( 'NONE', #229, .T. ) ;
#7 = AXIS2_PLACEMENT_3D ( 'NONE', #191, #137, #215 ) ;
#8 = DIRECTION ( 'NONE',  ( 0.000000000000000000, 0.000000000000000000, 1.000000000000000000 ) ) ;
#9 = CARTESIAN_POINT ( 'NONE',  ( 8.000000000000000000, 9.797174393178825657E-16, 0.000000000000000000 ) ) ;
#10 = DATE_TIME_ROLE ( 'classification_date' ) ;
#11 = CARTESIAN_POINT ( 'NONE',  ( 8.000000000000000000, 9.797174393178825657E-16, 5.000000000000000000 ) ) ;
#12 = DIRECTION ( 'NONE',  ( 0.000000000000000000, 0.000000000000000000, 1.000000000000000000 ) ) ;
#13 = PERSON_AND_ORGANIZATION ( #87, #3 ) ;
#14 = DIRECTION ( 'NONE',  ( -0.000000000000000000, -0.000000000000000000, -1.000000000000000000 ) ) ;
#15 = ADVANCED_FACE ( 'NONE', ( #88 ), #141, .T. ) ;
#16 = PERSON_AND_ORGANIZATION ( #87, #3 ) ;
#17 = CIRCLE ( 'NONE', #200, 5.000000000000000000 ) ;
#18 = APPROVAL_DATE_TIME ( #41, #219 ) ;
#19 = APPLICATION_PROTOCOL_DEFINITION ( 'international standard', 'config_control_design', 1994, #103 ) ;
#20 =( NAMED_UNIT ( * ) SI_UNIT ( $, .STERADIAN. ) SOLID_ANGLE_UNIT ( ) );
#21 = ADVANCED_BREP_SHAPE_REPRESENTATION ( '3caa', ( #143, #85 ), #207 ) ;
#22 = DIRECTION ( 'NONE',  ( -0.000000000000000000, -0.000000000000000000, -1.000000000000000000 ) ) ;
#23 = EDGE_CURVE ( 'NONE', #196, #138, #26, .T. ) ;
#24 = CARTESIAN_POINT ( 'NONE',  ( 0.000000000000000000, 0.000000000000000000, 105.0000000000000142 ) ) ;
#25 = DATE_AND_TIME ( #147, #142 ) ;
#26 = CIRCLE ( 'NONE', #90, 8.000000000000000000 ) ;
#27 = LINE ( 'NONE', #53, #127 ) ;
#28 = CC_DESIGN_APPROVAL ( #99, ( #185 ) ) ;
#29 = ORIENTED_EDGE ( 'NONE', *, *, #172, .F. ) ;
#30 = CARTESIAN_POINT ( 'NONE',  ( -8.000000000000000000, 0.000000000000000000, 5.000000000000000000 ) ) ;
#31 = EDGE_LOOP ( 'NONE', ( #29, #216 ) ) ;
#32 = DIRECTION ( 'NONE',  ( 1.000000000000000000, 0.000000000000000000, -0.000000000000000000 ) ) ;
#33 = APPROVAL_DATE_TIME ( #115, #60 ) ;
#34 = AXIS2_PLACEMENT_3D ( 'NONE', #160, #114, #32 ) ;
#35 = CARTESIAN_POINT ( 'NONE',  ( -5.000000000000000000, 0.000000000000000000, 5.000000000000000000 ) ) ;
#36 = CARTESIAN_POINT ( 'NONE',  ( 5.000000000000000000, 6.123233995736766282E-16, 105.0000000000000142 ) ) ;
#37 = PERSON_AND_ORGANIZATION_ROLE ( 'classification_officer' ) ;
#38 = AXIS2_PLACEMENT_3D ( 'NONE', #174, #12, #117 ) ;
#39 = DIRECTION ( 'NONE',  ( 1.000000000000000000, 0.000000000000000000, 0.000000000000000000 ) ) ;
#40 = CARTESIAN_POINT ( 'NONE',  ( -5.000000000000000000, 0.000000000000000000, 105.0000000000000142 ) ) ;
#41 = DATE_AND_TIME ( #220, #72 ) ;
#42 =( LENGTH_UNIT ( ) NAMED_UNIT ( * ) SI_UNIT ( .MILLI., .METRE. ) );
#43 = EDGE_CURVE ( 'NONE', #116, #109, #243, .T. ) ;
#44 = APPLICATION_PROTOCOL_DEFINITION ( 'international standard', 'config_control_design', 1994, #179 ) ;
#45 = CARTESIAN_POINT ( 'NONE',  ( 0.000000000000000000, 0.000000000000000000, 0.000000000000000000 ) ) ;
#46 = VERTEX_POINT ( 'NONE', #35 ) ;
#47 = LINE ( 'NONE', #30, #167 ) ;
#48 = AXIS2_PLACEMENT_3D ( 'NONE', #24, #222, #102 ) ;
#49 = EDGE_CURVE ( 'NONE', #133, #138, #194, .T. ) ;
#50 = EDGE_LOOP ( 'NONE', ( #231, #162, #227, #95 ) ) ;
#51 = FACE_OUTER_BOUND ( 'NONE', #56, .T. ) ;
#52 = EDGE_LOOP ( 'NONE', ( #192, #91, #5, #159 ) ) ;
#53 = CARTESIAN_POINT ( 'NONE',  ( 5.000000000000000000, 6.123233995736766282E-16, 105.0000000000000142 ) ) ;
#54 = CALENDAR_DATE ( 2022, 7, 7 ) ;
#55 = AXIS2_PLACEMENT_3D ( 'NONE', #68, #226, #76 ) ;
#56 = EDGE_LOOP ( 'NONE', ( #113, #252 ) ) ;
#57 = CYLINDRICAL_SURFACE ( 'NONE', #253, 5.000000000000000000 ) ;
#58 = COORDINATED_UNIVERSAL_TIME_OFFSET ( 1, 0, .AHEAD. ) ;
#59 = ORIENTED_EDGE ( 'NONE', *, *, #49, .T. ) ;
#60 = APPROVAL ( #93, 'NEURÈENÝ' ) ;
#61 = APPROVAL_PERSON_ORGANIZATION ( #187, #99, #65 ) ;
#62 = APPROVAL_ROLE ( '' ) ;
#63 = APPROVAL_DATE_TIME ( #25, #99 ) ;
#64 = EDGE_CURVE ( 'NONE', #109, #116, #168, .T. ) ;
#65 = APPROVAL_ROLE ( '' ) ;
#66 = CIRCLE ( 'NONE', #218, 5.000000000000000000 ) ;
#67 = CC_DESIGN_SECURITY_CLASSIFICATION ( #123, ( #221 ) ) ;
#68 = CARTESIAN_POINT ( 'NONE',  ( 0.000000000000000000, 0.000000000000000000, 105.0000000000000142 ) ) ;
#69 = EDGE_CURVE ( 'NONE', #138, #196, #84, .T. ) ;
#70 = CARTESIAN_POINT ( 'NONE',  ( 0.000000000000000000, 0.000000000000000000, 5.000000000000000000 ) ) ;
#71 = PLANE ( 'NONE',  #181 ) ;
#72 = LOCAL_TIME ( 19, 27, 51.00000000000000000, #145 ) ;
#73 = ORIENTED_EDGE ( 'NONE', *, *, #69, .T. ) ;
#74 = CARTESIAN_POINT ( 'NONE',  ( 5.000000000000000000, 6.123233995736766282E-16, 5.000000000000000000 ) ) ;
#75 = ORIENTED_EDGE ( 'NONE', *, *, #223, .F. ) ;
#76 = DIRECTION ( 'NONE',  ( 1.000000000000000000, 0.000000000000000000, 0.000000000000000000 ) ) ;
#77 = ORIENTED_EDGE ( 'NONE', *, *, #166, .F. ) ;
#78 = PRODUCT_RELATED_PRODUCT_CATEGORY ( 'detail', '', ( #202 ) ) ;
#79 = DIRECTION ( 'NONE',  ( -1.000000000000000000, 0.000000000000000000, 0.000000000000000000 ) ) ;
#80 = FACE_OUTER_BOUND ( 'NONE', #52, .T. ) ;
#81 = CLOSED_SHELL ( 'NONE', ( #148, #236, #15, #136, #121, #245, #190 ) ) ;
#82 = COORDINATED_UNIVERSAL_TIME_OFFSET ( 1, 0, .AHEAD. ) ;
#83 = CC_DESIGN_PERSON_AND_ORGANIZATION_ASSIGNMENT ( #119, #37, ( #123 ) ) ;
#84 = CIRCLE ( 'NONE', #153, 8.000000000000000000 ) ;
#85 = AXIS2_PLACEMENT_3D ( 'NONE', #45, #122, #126 ) ;
#86 = DIRECTION ( 'NONE',  ( 0.000000000000000000, 0.000000000000000000, 1.000000000000000000 ) ) ;
#87 = PERSON ( 'NEURÈENÝ', 'NEURÈENÝ', 'NEURÈENÝ', ('NEURÈENÝ'), ('NEURÈENÝ'), ('NEURÈENÝ') ) ;
#88 = FACE_OUTER_BOUND ( 'NONE', #50, .T. ) ;
#89 = DIRECTION ( 'NONE',  ( 0.000000000000000000, 0.000000000000000000, 1.000000000000000000 ) ) ;
#90 = AXIS2_PLACEMENT_3D ( 'NONE', #111, #8, #173 ) ;
#91 = ORIENTED_EDGE ( 'NONE', *, *, #43, .F. ) ;
#92 = DIRECTION ( 'NONE',  ( -0.000000000000000000, -0.000000000000000000, -1.000000000000000000 ) ) ;
#93 = APPROVAL_STATUS ( 'not_yet_approved' ) ;
#94 = LOCAL_TIME ( 19, 27, 51.00000000000000000, #104 ) ;
#95 = ORIENTED_EDGE ( 'NONE', *, *, #23, .T. ) ;
#96 = LINE ( 'NONE', #139, #183 ) ;
#97 = DATE_AND_TIME ( #199, #237 ) ;
#98 = EDGE_LOOP ( 'NONE', ( #213, #157 ) ) ;
#99 = APPROVAL ( #100, 'NEURÈENÝ' ) ;
#100 = APPROVAL_STATUS ( 'not_yet_approved' ) ;
#101 = MECHANICAL_CONTEXT ( 'NONE', #103, 'mechanical' ) ;
#102 = DIRECTION ( 'NONE',  ( -1.000000000000000000, 0.000000000000000000, 0.000000000000000000 ) ) ;
#103 = APPLICATION_CONTEXT ( 'configuration controlled 3d designs of mechanical parts and assemblies' ) ;
#104 = COORDINATED_UNIVERSAL_TIME_OFFSET ( 1, 0, .AHEAD. ) ;
#105 = EDGE_CURVE ( 'NONE', #109, #211, #27, .T. ) ;
#106 = EDGE_CURVE ( 'NONE', #209, #133, #161, .T. ) ;
#107 = DIRECTION ( 'NONE',  ( 1.000000000000000000, 0.000000000000000000, -0.000000000000000000 ) ) ;
#108 = CC_DESIGN_APPROVAL ( #60, ( #123 ) ) ;
#109 = VERTEX_POINT ( 'NONE', #36 ) ;
#110 = PLANE ( 'NONE',  #34 ) ;
#111 = CARTESIAN_POINT ( 'NONE',  ( 0.000000000000000000, 0.000000000000000000, 0.000000000000000000 ) ) ;
#112 = FACE_OUTER_BOUND ( 'NONE', #98, .T. ) ;
#113 = ORIENTED_EDGE ( 'NONE', *, *, #106, .T. ) ;
#114 = DIRECTION ( 'NONE',  ( 0.000000000000000000, 0.000000000000000000, 1.000000000000000000 ) ) ;
#115 = DATE_AND_TIME ( #54, #150 ) ;
#116 = VERTEX_POINT ( 'NONE', #40 ) ;
#117 = DIRECTION ( 'NONE',  ( 1.000000000000000000, 0.000000000000000000, 0.000000000000000000 ) ) ;
#118 = SECURITY_CLASSIFICATION_LEVEL ( 'unclassified' ) ;
#119 = PERSON_AND_ORGANIZATION ( #87, #3 ) ;
#120 = VECTOR ( 'NONE', #92, 1000.000000000000000 ) ;
#121 = ADVANCED_FACE ( 'NONE', ( #112 ), #71, .F. ) ;
#122 = DIRECTION ( 'NONE',  ( 0.000000000000000000, 0.000000000000000000, 1.000000000000000000 ) ) ;
#123 = SECURITY_CLASSIFICATION ( '', '', #118 ) ;
#124 = DATE_AND_TIME ( #204, #94 ) ;
#125 = CC_DESIGN_PERSON_AND_ORGANIZATION_ASSIGNMENT ( #16, #235, ( #221 ) ) ;
#126 = DIRECTION ( 'NONE',  ( 1.000000000000000000, 0.000000000000000000, 0.000000000000000000 ) ) ;
#127 = VECTOR ( 'NONE', #232, 1000.000000000000000 ) ;
#128 = APPROVAL_PERSON_ORGANIZATION ( #234, #60, #163 ) ;
#129 = UNCERTAINTY_MEASURE_WITH_UNIT (LENGTH_MEASURE( 1.000000000000000082E-05 ), #42, 'distance_accuracy_value', 'NONE');
#130 = ORIENTED_EDGE ( 'NONE', *, *, #156, .F. ) ;
#131 = FACE_BOUND ( 'NONE', #31, .T. ) ;
#132 = AXIS2_PLACEMENT_3D ( 'NONE', #134, #22, #79 ) ;
#133 = VERTEX_POINT ( 'NONE', #188 ) ;
#134 = CARTESIAN_POINT ( 'NONE',  ( 0.000000000000000000, 0.000000000000000000, 5.000000000000000000 ) ) ;
#135 = CARTESIAN_POINT ( 'NONE',  ( 0.000000000000000000, 0.000000000000000000, 105.0000000000000142 ) ) ;
#136 = ADVANCED_FACE ( 'NONE', ( #131, #51 ), #110, .T. ) ;
#137 = DIRECTION ( 'NONE',  ( 0.000000000000000000, 0.000000000000000000, 1.000000000000000000 ) ) ;
#138 = VERTEX_POINT ( 'NONE', #9 ) ;
#139 = CARTESIAN_POINT ( 'NONE',  ( -5.000000000000000000, 0.000000000000000000, 105.0000000000000142 ) ) ;
#140 = PERSON_AND_ORGANIZATION_ROLE ( 'creator' ) ;
#141 = CYLINDRICAL_SURFACE ( 'NONE', #198, 8.000000000000000000 ) ;
#142 = LOCAL_TIME ( 19, 27, 51.00000000000000000, #82 ) ;
#143 = MANIFOLD_SOLID_BREP ( 'Pøidat vysunutím3', #81 ) ;
#144 = DESIGN_CONTEXT ( 'detailed design', #179, 'design' ) ;
#145 = COORDINATED_UNIVERSAL_TIME_OFFSET ( 1, 0, .AHEAD. ) ;
#146 = PERSON_AND_ORGANIZATION_ROLE ( 'creator' ) ;
#147 = CALENDAR_DATE ( 2022, 7, 7 ) ;
#148 = ADVANCED_FACE ( 'NONE', ( #228 ), #57, .T. ) ;
#149 = CARTESIAN_POINT ( 'NONE',  ( 0.000000000000000000, 0.000000000000000000, 5.000000000000000000 ) ) ;
#150 = LOCAL_TIME ( 19, 27, 51.00000000000000000, #201 ) ;
#151 = DIRECTION ( 'NONE',  ( -0.000000000000000000, -0.000000000000000000, -1.000000000000000000 ) ) ;
#152 = DIRECTION ( 'NONE',  ( 1.000000000000000000, 0.000000000000000000, 0.000000000000000000 ) ) ;
#153 = AXIS2_PLACEMENT_3D ( 'NONE', #169, #195, #212 ) ;
#154 = ORIENTED_EDGE ( 'NONE', *, *, #64, .F. ) ;
#155 = CYLINDRICAL_SURFACE ( 'NONE', #132, 8.000000000000000000 ) ;
#156 = EDGE_CURVE ( 'NONE', #133, #209, #214, .T. ) ;
#157 = ORIENTED_EDGE ( 'NONE', *, *, #69, .F. ) ;
#158 = DIRECTION ( 'NONE',  ( -1.000000000000000000, 0.000000000000000000, 0.000000000000000000 ) ) ;
#159 = ORIENTED_EDGE ( 'NONE', *, *, #172, .T. ) ;
#160 = CARTESIAN_POINT ( 'NONE',  ( 0.000000000000000000, 0.000000000000000000, 5.000000000000000000 ) ) ;
#161 = CIRCLE ( 'NONE', #7, 8.000000000000000000 ) ;
#162 = ORIENTED_EDGE ( 'NONE', *, *, #106, .F. ) ;
#163 = APPROVAL_ROLE ( '' ) ;
#164 = PRODUCT_DEFINITION_SHAPE ( 'NONE', 'NONE',  #185 ) ;
#165 = CC_DESIGN_APPROVAL ( #219, ( #221 ) ) ;
#166 = EDGE_CURVE ( 'NONE', #116, #46, #96, .T. ) ;
#167 = VECTOR ( 'NONE', #251, 1000.000000000000000 ) ;
#168 = CIRCLE ( 'NONE', #55, 5.000000000000000000 ) ;
#169 = CARTESIAN_POINT ( 'NONE',  ( 0.000000000000000000, 0.000000000000000000, 0.000000000000000000 ) ) ;
#170 = DIRECTION ( 'NONE',  ( -1.000000000000000000, 0.000000000000000000, 0.000000000000000000 ) ) ;
#171 = DIRECTION ( 'NONE',  ( -0.000000000000000000, -0.000000000000000000, -1.000000000000000000 ) ) ;
#172 = EDGE_CURVE ( 'NONE', #46, #211, #66, .T. ) ;
#173 = DIRECTION ( 'NONE',  ( 1.000000000000000000, 0.000000000000000000, 0.000000000000000000 ) ) ;
#174 = CARTESIAN_POINT ( 'NONE',  ( 0.000000000000000000, 0.000000000000000000, 5.000000000000000000 ) ) ;
#175 = SHAPE_DEFINITION_REPRESENTATION ( #164, #21 ) ;
#176 = EDGE_LOOP ( 'NONE', ( #130, #59, #73, #75 ) ) ;
#177 = CARTESIAN_POINT ( 'NONE',  ( 0.000000000000000000, 0.000000000000000000, 5.000000000000000000 ) ) ;
#178 = ORIENTED_EDGE ( 'NONE', *, *, #64, .T. ) ;
#179 = APPLICATION_CONTEXT ( 'configuration controlled 3d designs of mechanical parts and assemblies' ) ;
#180 = CC_DESIGN_DATE_AND_TIME_ASSIGNMENT ( #124, #203, ( #185 ) ) ;
#181 = AXIS2_PLACEMENT_3D ( 'NONE', #246, #86, #217 ) ;
#182 = PERSON_AND_ORGANIZATION ( #87, #3 ) ;
#183 = VECTOR ( 'NONE', #171, 1000.000000000000000 ) ;
#184 = DIRECTION ( 'NONE',  ( 1.000000000000000000, 0.000000000000000000, 0.000000000000000000 ) ) ;
#185 = PRODUCT_DEFINITION ( 'NEZNÁMÝ', '', #221, #144 ) ;
#186 = CYLINDRICAL_SURFACE ( 'NONE', #48, 5.000000000000000000 ) ;
#187 = PERSON_AND_ORGANIZATION ( #87, #3 ) ;
#188 = CARTESIAN_POINT ( 'NONE',  ( 8.000000000000000000, 9.797174393178825657E-16, 5.000000000000000000 ) ) ;
#189 = EDGE_LOOP ( 'NONE', ( #154, #233, #225, #77 ) ) ;
#190 = ADVANCED_FACE ( 'NONE', ( #6 ), #230, .T. ) ;
#191 = CARTESIAN_POINT ( 'NONE',  ( 0.000000000000000000, 0.000000000000000000, 5.000000000000000000 ) ) ;
#192 = ORIENTED_EDGE ( 'NONE', *, *, #105, .F. ) ;
#193 = CARTESIAN_POINT ( 'NONE',  ( 0.000000000000000000, 0.000000000000000000, 105.0000000000000142 ) ) ;
#194 = LINE ( 'NONE', #11, #120 ) ;
#195 = DIRECTION ( 'NONE',  ( 0.000000000000000000, 0.000000000000000000, 1.000000000000000000 ) ) ;
#196 = VERTEX_POINT ( 'NONE', #4 ) ;
#197 = CARTESIAN_POINT ( 'NONE',  ( 0.000000000000000000, 0.000000000000000000, 105.0000000000000142 ) ) ;
#198 = AXIS2_PLACEMENT_3D ( 'NONE', #70, #151, #170 ) ;
#199 = CALENDAR_DATE ( 2022, 7, 7 ) ;
#200 = AXIS2_PLACEMENT_3D ( 'NONE', #149, #255, #184 ) ;
#201 = COORDINATED_UNIVERSAL_TIME_OFFSET ( 1, 0, .AHEAD. ) ;
#202 = PRODUCT ( '3caa', '3caa', '', ( #101 ) ) ;
#203 = DATE_TIME_ROLE ( 'creation_date' ) ;
#204 = CALENDAR_DATE ( 2022, 7, 7 ) ;
#205 = PERSON_AND_ORGANIZATION ( #87, #3 ) ;
#206 = PERSON_AND_ORGANIZATION ( #87, #3 ) ;
#207 =( GEOMETRIC_REPRESENTATION_CONTEXT ( 3 ) GLOBAL_UNCERTAINTY_ASSIGNED_CONTEXT ( ( #129 ) ) GLOBAL_UNIT_ASSIGNED_CONTEXT ( ( #42, #241, #20 ) ) REPRESENTATION_CONTEXT ( 'NONE', 'WORKASPACE' ) );
#208 = CC_DESIGN_PERSON_AND_ORGANIZATION_ASSIGNMENT ( #13, #140, ( #221 ) ) ;
#209 = VERTEX_POINT ( 'NONE', #210 ) ;
#210 = CARTESIAN_POINT ( 'NONE',  ( -8.000000000000000000, 0.000000000000000000, 5.000000000000000000 ) ) ;
#211 = VERTEX_POINT ( 'NONE', #74 ) ;
#212 = DIRECTION ( 'NONE',  ( 1.000000000000000000, 0.000000000000000000, 0.000000000000000000 ) ) ;
#213 = ORIENTED_EDGE ( 'NONE', *, *, #23, .F. ) ;
#214 = CIRCLE ( 'NONE', #38, 8.000000000000000000 ) ;
#215 = DIRECTION ( 'NONE',  ( 1.000000000000000000, 0.000000000000000000, 0.000000000000000000 ) ) ;
#216 = ORIENTED_EDGE ( 'NONE', *, *, #254, .F. ) ;
#217 = DIRECTION ( 'NONE',  ( 1.000000000000000000, 0.000000000000000000, -0.000000000000000000 ) ) ;
#218 = AXIS2_PLACEMENT_3D ( 'NONE', #177, #249, #152 ) ;
#219 = APPROVAL ( #238, 'NEURÈENÝ' ) ;
#220 = CALENDAR_DATE ( 2022, 7, 7 ) ;
#221 = PRODUCT_DEFINITION_FORMATION_WITH_SPECIFIED_SOURCE ( 'LIBOVOLNÝ', '', #202, .NOT_KNOWN. ) ;
#222 = DIRECTION ( 'NONE',  ( -0.000000000000000000, -0.000000000000000000, -1.000000000000000000 ) ) ;
#223 = EDGE_CURVE ( 'NONE', #209, #196, #47, .T. ) ;
#224 = CC_DESIGN_PERSON_AND_ORGANIZATION_ASSIGNMENT ( #206, #239, ( #202 ) ) ;
#225 = ORIENTED_EDGE ( 'NONE', *, *, #254, .T. ) ;
#226 = DIRECTION ( 'NONE',  ( 0.000000000000000000, 0.000000000000000000, 1.000000000000000000 ) ) ;
#227 = ORIENTED_EDGE ( 'NONE', *, *, #223, .T. ) ;
#228 = FACE_OUTER_BOUND ( 'NONE', #189, .T. ) ;
#229 = EDGE_LOOP ( 'NONE', ( #250, #178 ) ) ;
#230 = PLANE ( 'NONE',  #244 ) ;
#231 = ORIENTED_EDGE ( 'NONE', *, *, #49, .F. ) ;
#232 = DIRECTION ( 'NONE',  ( -0.000000000000000000, -0.000000000000000000, -1.000000000000000000 ) ) ;
#233 = ORIENTED_EDGE ( 'NONE', *, *, #105, .T. ) ;
#234 = PERSON_AND_ORGANIZATION ( #87, #3 ) ;
#235 = PERSON_AND_ORGANIZATION_ROLE ( 'design_supplier' ) ;
#236 = ADVANCED_FACE ( 'NONE', ( #247 ), #155, .T. ) ;
#237 = LOCAL_TIME ( 19, 27, 51.00000000000000000, #58 ) ;
#238 = APPROVAL_STATUS ( 'not_yet_approved' ) ;
#239 = PERSON_AND_ORGANIZATION_ROLE ( 'design_owner' ) ;
#240 = APPROVAL_PERSON_ORGANIZATION ( #182, #219, #62 ) ;
#241 =( NAMED_UNIT ( * ) PLANE_ANGLE_UNIT ( ) SI_UNIT ( $, .RADIAN. ) );
#242 = CC_DESIGN_DATE_AND_TIME_ASSIGNMENT ( #97, #10, ( #123 ) ) ;
#243 = CIRCLE ( 'NONE', #2, 5.000000000000000000 ) ;
#244 = AXIS2_PLACEMENT_3D ( 'NONE', #197, #89, #107 ) ;
#245 = ADVANCED_FACE ( 'NONE', ( #80 ), #186, .T. ) ;
#246 = CARTESIAN_POINT ( 'NONE',  ( 0.000000000000000000, 0.000000000000000000, 0.000000000000000000 ) ) ;
#247 = FACE_OUTER_BOUND ( 'NONE', #176, .T. ) ;
#248 = DIRECTION ( 'NONE',  ( 0.000000000000000000, 0.000000000000000000, 1.000000000000000000 ) ) ;
#249 = DIRECTION ( 'NONE',  ( 0.000000000000000000, 0.000000000000000000, 1.000000000000000000 ) ) ;
#250 = ORIENTED_EDGE ( 'NONE', *, *, #43, .T. ) ;
#251 = DIRECTION ( 'NONE',  ( -0.000000000000000000, -0.000000000000000000, -1.000000000000000000 ) ) ;
#252 = ORIENTED_EDGE ( 'NONE', *, *, #156, .T. ) ;
#253 = AXIS2_PLACEMENT_3D ( 'NONE', #193, #14, #158 ) ;
#254 = EDGE_CURVE ( 'NONE', #211, #46, #17, .T. ) ;
#255 = DIRECTION ( 'NONE',  ( 0.000000000000000000, 0.000000000000000000, 1.000000000000000000 ) ) ;
ENDSEC;
END-ISO-10303-21;
