ISO-10303-21;
HEADER;
FILE_DESCRIPTION (( 'STEP AP203' ),
    '1' );
FILE_NAME ('02ca.STEP',
    '2023-02-13T16:39:51',
    ( '' ),
    ( '' ),
    'SwSTEP 2.0',
    'SolidWorks 2019',
    '' );
FILE_SCHEMA (( 'CONFIG_CONTROL_DESIGN' ));
ENDSEC;

DATA;
#1 = ORIENTED_EDGE ( 'NONE', *, *, #62, .F. ) ;
#2 = DATE_AND_TIME ( #7, #212 ) ;
#3 = PERSON_AND_ORGANIZATION ( #96, #57 ) ;
#4 = AXIS2_PLACEMENT_3D ( 'NONE', #205, #66, #158 ) ;
#5 = CYLINDRICAL_SURFACE ( 'NONE', #52, 1.250000000000000000 ) ;
#6 = ORIENTED_EDGE ( 'NONE', *, *, #169, .F. ) ;
#7 = CALENDAR_DATE ( 2023, 13, 2 ) ;
#8 = EDGE_LOOP ( 'NONE', ( #174, #240, #83, #131 ) ) ;
#9 = CYLINDRICAL_SURFACE ( 'NONE', #178, 2.500000000000000000 ) ;
#10 = VERTEX_POINT ( 'NONE', #216 ) ;
#11 = CARTESIAN_POINT ( 'NONE',  ( 2.500000000000000000, 3.061616997868383141E-16, 2.000000000000000000 ) ) ;
#12 = CC_DESIGN_DATE_AND_TIME_ASSIGNMENT ( #2, #79, ( #157 ) ) ;
#13 = PRODUCT ( '02ca', '02ca', '', ( #95 ) ) ;
#14 =( GEOMETRIC_REPRESENTATION_CONTEXT ( 3 ) GLOBAL_UNCERTAINTY_ASSIGNED_CONTEXT ( ( #233 ) ) GLOBAL_UNIT_ASSIGNED_CONTEXT ( ( #215, #206, #211 ) ) REPRESENTATION_CONTEXT ( 'NONE', 'WORKASPACE' ) );
#15 = APPROVAL_STATUS ( 'not_yet_approved' ) ;
#16 = ADVANCED_FACE ( 'NONE', ( #41 ), #55, .T. ) ;
#17 = CIRCLE ( 'NONE', #246, 2.500000000000000000 ) ;
#18 = APPLICATION_PROTOCOL_DEFINITION ( 'international standard', 'config_control_design', 1994, #217 ) ;
#19 = DIRECTION ( 'NONE',  ( 0.000000000000000000, 0.000000000000000000, 1.000000000000000000 ) ) ;
#20 = DESIGN_CONTEXT ( 'detailed design', #49, 'design' ) ;
#21 = CARTESIAN_POINT ( 'NONE',  ( -2.500000000000000000, 0.000000000000000000, 2.000000000000000000 ) ) ;
#22 = CC_DESIGN_PERSON_AND_ORGANIZATION_ASSIGNMENT ( #114, #213, ( #44 ) ) ;
#23 = ORIENTED_EDGE ( 'NONE', *, *, #43, .T. ) ;
#24 = COORDINATED_UNIVERSAL_TIME_OFFSET ( 1, 0, .AHEAD. ) ;
#25 = EDGE_CURVE ( 'NONE', #76, #77, #118, .T. ) ;
#26 = PERSON_AND_ORGANIZATION ( #96, #57 ) ;
#27 = APPROVAL_PERSON_ORGANIZATION ( #72, #59, #171 ) ;
#28 = CARTESIAN_POINT ( 'NONE',  ( 1.250000000000000000, 1.530808498934191571E-16, 2.000000000000000000 ) ) ;
#29 = CARTESIAN_POINT ( 'NONE',  ( 0.000000000000000000, 0.000000000000000000, 0.000000000000000000 ) ) ;
#30 = DIRECTION ( 'NONE',  ( -0.000000000000000000, -0.000000000000000000, -1.000000000000000000 ) ) ;
#31 = ADVANCED_FACE ( 'NONE', ( #37 ), #129, .F. ) ;
#32 = VERTEX_POINT ( 'NONE', #188 ) ;
#33 = AXIS2_PLACEMENT_3D ( 'NONE', #54, #190, #210 ) ;
#34 = CARTESIAN_POINT ( 'NONE',  ( 0.000000000000000000, 0.000000000000000000, 0.000000000000000000 ) ) ;
#35 = COORDINATED_UNIVERSAL_TIME_OFFSET ( 1, 0, .AHEAD. ) ;
#36 = CALENDAR_DATE ( 2023, 13, 2 ) ;
#37 = FACE_OUTER_BOUND ( 'NONE', #166, .T. ) ;
#38 = AXIS2_PLACEMENT_3D ( 'NONE', #198, #51, #182 ) ;
#39 = DIRECTION ( 'NONE',  ( -0.000000000000000000, -0.000000000000000000, -1.000000000000000000 ) ) ;
#40 = EDGE_CURVE ( 'NONE', #148, #254, #64, .T. ) ;
#41 = FACE_OUTER_BOUND ( 'NONE', #133, .T. ) ;
#42 = ORIENTED_EDGE ( 'NONE', *, *, #128, .T. ) ;
#43 = EDGE_CURVE ( 'NONE', #254, #148, #115, .T. ) ;
#44 = PRODUCT_DEFINITION_FORMATION_WITH_SPECIFIED_SOURCE ( 'LIBOVOLNÝ', '', #13, .NOT_KNOWN. ) ;
#45 = CIRCLE ( 'NONE', #173, 1.250000000000000000 ) ;
#46 = FACE_OUTER_BOUND ( 'NONE', #241, .T. ) ;
#47 = PERSON_AND_ORGANIZATION_ROLE ( 'creator' ) ;
#48 = DIRECTION ( 'NONE',  ( -1.000000000000000000, 0.000000000000000000, 0.000000000000000000 ) ) ;
#49 = APPLICATION_CONTEXT ( 'configuration controlled 3d designs of mechanical parts and assemblies' ) ;
#50 = CC_DESIGN_PERSON_AND_ORGANIZATION_ASSIGNMENT ( #71, #248, ( #13 ) ) ;
#51 = DIRECTION ( 'NONE',  ( 0.000000000000000000, 0.000000000000000000, 1.000000000000000000 ) ) ;
#52 = AXIS2_PLACEMENT_3D ( 'NONE', #81, #155, #242 ) ;
#53 = LOCAL_TIME ( 17, 39, 51.00000000000000000, #136 ) ;
#54 = CARTESIAN_POINT ( 'NONE',  ( 0.000000000000000000, 0.000000000000000000, 315.0000000000000000 ) ) ;
#55 = PLANE ( 'NONE',  #194 ) ;
#56 = DIRECTION ( 'NONE',  ( 1.000000000000000000, 0.000000000000000000, 0.000000000000000000 ) ) ;
#57 = ORGANIZATION ( 'NEURÈENÝ', 'NEURÈENÝ', '' ) ;
#58 = CARTESIAN_POINT ( 'NONE',  ( -2.500000000000000000, 0.000000000000000000, 2.000000000000000000 ) ) ;
#59 = APPROVAL ( #15, 'NEURÈENÝ' ) ;
#60 = LINE ( 'NONE', #134, #176 ) ;
#61 = CARTESIAN_POINT ( 'NONE',  ( 1.250000000000000000, 1.530808498934191571E-16, 315.0000000000000000 ) ) ;
#62 = EDGE_CURVE ( 'NONE', #10, #32, #17, .T. ) ;
#63 = DATE_AND_TIME ( #101, #53 ) ;
#64 = CIRCLE ( 'NONE', #120, 2.500000000000000000 ) ;
#65 = APPROVAL_STATUS ( 'not_yet_approved' ) ;
#66 = DIRECTION ( 'NONE',  ( 0.000000000000000000, 0.000000000000000000, 1.000000000000000000 ) ) ;
#67 = VERTEX_POINT ( 'NONE', #28 ) ;
#68 = DATE_AND_TIME ( #161, #185 ) ;
#69 = DIRECTION ( 'NONE',  ( 1.000000000000000000, 0.000000000000000000, 0.000000000000000000 ) ) ;
#70 = CARTESIAN_POINT ( 'NONE',  ( 2.500000000000000000, 3.061616997868383141E-16, 2.000000000000000000 ) ) ;
#71 = PERSON_AND_ORGANIZATION ( #96, #57 ) ;
#72 = PERSON_AND_ORGANIZATION ( #96, #57 ) ;
#73 = DIRECTION ( 'NONE',  ( 1.000000000000000000, 0.000000000000000000, 0.000000000000000000 ) ) ;
#74 = DIRECTION ( 'NONE',  ( 0.000000000000000000, 0.000000000000000000, 1.000000000000000000 ) ) ;
#75 = ORIENTED_EDGE ( 'NONE', *, *, #191, .T. ) ;
#76 = VERTEX_POINT ( 'NONE', #61 ) ;
#77 = VERTEX_POINT ( 'NONE', #219 ) ;
#78 = AXIS2_PLACEMENT_3D ( 'NONE', #34, #111, #93 ) ;
#79 = DATE_TIME_ROLE ( 'classification_date' ) ;
#80 = ADVANCED_FACE ( 'NONE', ( #177 ), #5, .T. ) ;
#81 = CARTESIAN_POINT ( 'NONE',  ( 0.000000000000000000, 0.000000000000000000, 315.0000000000000000 ) ) ;
#82 = CC_DESIGN_PERSON_AND_ORGANIZATION_ASSIGNMENT ( #3, #137, ( #159 ) ) ;
#83 = ORIENTED_EDGE ( 'NONE', *, *, #193, .T. ) ;
#84 = CC_DESIGN_SECURITY_CLASSIFICATION ( #157, ( #44 ) ) ;
#85 = FACE_BOUND ( 'NONE', #175, .T. ) ;
#86 = CARTESIAN_POINT ( 'NONE',  ( 0.000000000000000000, 0.000000000000000000, 2.000000000000000000 ) ) ;
#87 = DIRECTION ( 'NONE',  ( 0.000000000000000000, 0.000000000000000000, 1.000000000000000000 ) ) ;
#88 = ORIENTED_EDGE ( 'NONE', *, *, #40, .T. ) ;
#89 = EDGE_CURVE ( 'NONE', #77, #160, #227, .T. ) ;
#90 = DIRECTION ( 'NONE',  ( -0.000000000000000000, -0.000000000000000000, -1.000000000000000000 ) ) ;
#91 = VECTOR ( 'NONE', #39, 1000.000000000000000 ) ;
#92 = ORIENTED_EDGE ( 'NONE', *, *, #138, .F. ) ;
#93 = DIRECTION ( 'NONE',  ( 1.000000000000000000, 0.000000000000000000, 0.000000000000000000 ) ) ;
#94 = VECTOR ( 'NONE', #121, 1000.000000000000000 ) ;
#95 = MECHANICAL_CONTEXT ( 'NONE', #217, 'mechanical' ) ;
#96 = PERSON ( 'NEURÈENÝ', 'NEURÈENÝ', 'NEURÈENÝ', ('NEURÈENÝ'), ('NEURÈENÝ'), ('NEURÈENÝ') ) ;
#97 = DIRECTION ( 'NONE',  ( 0.000000000000000000, 0.000000000000000000, 1.000000000000000000 ) ) ;
#98 = DIRECTION ( 'NONE',  ( 0.000000000000000000, 0.000000000000000000, 1.000000000000000000 ) ) ;
#99 = ORIENTED_EDGE ( 'NONE', *, *, #191, .F. ) ;
#100 = APPROVAL_PERSON_ORGANIZATION ( #117, #221, #119 ) ;
#101 = CALENDAR_DATE ( 2023, 13, 2 ) ;
#102 = CYLINDRICAL_SURFACE ( 'NONE', #144, 1.250000000000000000 ) ;
#103 = CARTESIAN_POINT ( 'NONE',  ( 0.000000000000000000, 0.000000000000000000, 2.000000000000000000 ) ) ;
#104 = ADVANCED_FACE ( 'NONE', ( #46 ), #102, .T. ) ;
#105 = ORIENTED_EDGE ( 'NONE', *, *, #201, .F. ) ;
#106 = ADVANCED_BREP_SHAPE_REPRESENTATION ( '02ca', ( #153, #78 ), #14 ) ;
#107 = ADVANCED_FACE ( 'NONE', ( #124 ), #9, .T. ) ;
#108 = CC_DESIGN_PERSON_AND_ORGANIZATION_ASSIGNMENT ( #225, #47, ( #44 ) ) ;
#109 = PRODUCT_DEFINITION_SHAPE ( 'NONE', 'NONE',  #159 ) ;
#110 = CALENDAR_DATE ( 2023, 13, 2 ) ;
#111 = DIRECTION ( 'NONE',  ( 0.000000000000000000, 0.000000000000000000, 1.000000000000000000 ) ) ;
#112 = ADVANCED_FACE ( 'NONE', ( #85, #208 ), #162, .T. ) ;
#113 = APPLICATION_PROTOCOL_DEFINITION ( 'international standard', 'config_control_design', 1994, #49 ) ;
#114 = PERSON_AND_ORGANIZATION ( #96, #57 ) ;
#115 = CIRCLE ( 'NONE', #127, 2.500000000000000000 ) ;
#116 = CC_DESIGN_DATE_AND_TIME_ASSIGNMENT ( #183, #228, ( #159 ) ) ;
#117 = PERSON_AND_ORGANIZATION ( #96, #57 ) ;
#118 = CIRCLE ( 'NONE', #33, 1.250000000000000000 ) ;
#119 = APPROVAL_ROLE ( '' ) ;
#120 = AXIS2_PLACEMENT_3D ( 'NONE', #147, #74, #56 ) ;
#121 = DIRECTION ( 'NONE',  ( -0.000000000000000000, -0.000000000000000000, -1.000000000000000000 ) ) ;
#122 = ORIENTED_EDGE ( 'NONE', *, *, #128, .F. ) ;
#123 = APPROVAL_PERSON_ORGANIZATION ( #202, #247, #187 ) ;
#124 = FACE_OUTER_BOUND ( 'NONE', #145, .T. ) ;
#125 = ORIENTED_EDGE ( 'NONE', *, *, #130, .T. ) ;
#126 = ORIENTED_EDGE ( 'NONE', *, *, #138, .T. ) ;
#127 = AXIS2_PLACEMENT_3D ( 'NONE', #132, #98, #220 ) ;
#128 = EDGE_CURVE ( 'NONE', #160, #67, #45, .T. ) ;
#129 = PLANE ( 'NONE',  #172 ) ;
#130 = EDGE_CURVE ( 'NONE', #148, #32, #224, .T. ) ;
#131 = ORIENTED_EDGE ( 'NONE', *, *, #62, .T. ) ;
#132 = CARTESIAN_POINT ( 'NONE',  ( 0.000000000000000000, 0.000000000000000000, 2.000000000000000000 ) ) ;
#133 = EDGE_LOOP ( 'NONE', ( #126, #239 ) ) ;
#134 = CARTESIAN_POINT ( 'NONE',  ( 1.250000000000000000, 1.530808498934191571E-16, 315.0000000000000000 ) ) ;
#135 = PRODUCT_RELATED_PRODUCT_CATEGORY ( 'detail', '', ( #13 ) ) ;
#136 = COORDINATED_UNIVERSAL_TIME_OFFSET ( 1, 0, .AHEAD. ) ;
#137 = PERSON_AND_ORGANIZATION_ROLE ( 'creator' ) ;
#138 = EDGE_CURVE ( 'NONE', #77, #76, #189, .T. ) ;
#139 = APPROVAL_DATE_TIME ( #68, #247 ) ;
#140 = CIRCLE ( 'NONE', #234, 1.250000000000000000 ) ;
#141 = FACE_OUTER_BOUND ( 'NONE', #8, .T. ) ;
#142 = EDGE_LOOP ( 'NONE', ( #105, #92, #179, #42 ) ) ;
#143 = DIRECTION ( 'NONE',  ( -1.000000000000000000, 0.000000000000000000, 0.000000000000000000 ) ) ;
#144 = AXIS2_PLACEMENT_3D ( 'NONE', #180, #90, #48 ) ;
#145 = EDGE_LOOP ( 'NONE', ( #156, #125, #75, #181 ) ) ;
#146 = CC_DESIGN_APPROVAL ( #247, ( #44 ) ) ;
#147 = CARTESIAN_POINT ( 'NONE',  ( 0.000000000000000000, 0.000000000000000000, 2.000000000000000000 ) ) ;
#148 = VERTEX_POINT ( 'NONE', #11 ) ;
#149 = SECURITY_CLASSIFICATION_LEVEL ( 'unclassified' ) ;
#150 = APPROVAL_DATE_TIME ( #204, #59 ) ;
#151 = ADVANCED_FACE ( 'NONE', ( #141 ), #229, .T. ) ;
#152 = EDGE_LOOP ( 'NONE', ( #23, #88 ) ) ;
#153 = MANIFOLD_SOLID_BREP ( 'Pøidat vysunutím3', #163 ) ;
#154 = DIRECTION ( 'NONE',  ( 1.000000000000000000, 0.000000000000000000, 0.000000000000000000 ) ) ;
#155 = DIRECTION ( 'NONE',  ( -0.000000000000000000, -0.000000000000000000, -1.000000000000000000 ) ) ;
#156 = ORIENTED_EDGE ( 'NONE', *, *, #40, .F. ) ;
#157 = SECURITY_CLASSIFICATION ( '', '', #149 ) ;
#158 = DIRECTION ( 'NONE',  ( 1.000000000000000000, 0.000000000000000000, -0.000000000000000000 ) ) ;
#159 = PRODUCT_DEFINITION ( 'NEZNÁMÝ', '', #44, #20 ) ;
#160 = VERTEX_POINT ( 'NONE', #186 ) ;
#161 = CALENDAR_DATE ( 2023, 13, 2 ) ;
#162 = PLANE ( 'NONE',  #4 ) ;
#163 = CLOSED_SHELL ( 'NONE', ( #104, #107, #151, #112, #31, #80, #16 ) ) ;
#164 = CARTESIAN_POINT ( 'NONE',  ( 0.000000000000000000, 0.000000000000000000, 2.000000000000000000 ) ) ;
#165 = DIRECTION ( 'NONE',  ( -1.000000000000000000, 0.000000000000000000, 0.000000000000000000 ) ) ;
#166 = EDGE_LOOP ( 'NONE', ( #1, #99 ) ) ;
#167 = CARTESIAN_POINT ( 'NONE',  ( -1.250000000000000000, 0.000000000000000000, 315.0000000000000000 ) ) ;
#168 = CC_DESIGN_PERSON_AND_ORGANIZATION_ASSIGNMENT ( #26, #237, ( #157 ) ) ;
#169 = EDGE_CURVE ( 'NONE', #67, #160, #140, .T. ) ;
#170 = AXIS2_PLACEMENT_3D ( 'NONE', #251, #97, #73 ) ;
#171 = APPROVAL_ROLE ( '' ) ;
#172 = AXIS2_PLACEMENT_3D ( 'NONE', #209, #19, #252 ) ;
#173 = AXIS2_PLACEMENT_3D ( 'NONE', #244, #87, #245 ) ;
#174 = ORIENTED_EDGE ( 'NONE', *, *, #130, .F. ) ;
#175 = EDGE_LOOP ( 'NONE', ( #122, #6 ) ) ;
#176 = VECTOR ( 'NONE', #192, 1000.000000000000000 ) ;
#177 = FACE_OUTER_BOUND ( 'NONE', #142, .T. ) ;
#178 = AXIS2_PLACEMENT_3D ( 'NONE', #86, #30, #165 ) ;
#179 = ORIENTED_EDGE ( 'NONE', *, *, #89, .T. ) ;
#180 = CARTESIAN_POINT ( 'NONE',  ( 0.000000000000000000, 0.000000000000000000, 315.0000000000000000 ) ) ;
#181 = ORIENTED_EDGE ( 'NONE', *, *, #193, .F. ) ;
#182 = DIRECTION ( 'NONE',  ( 1.000000000000000000, 0.000000000000000000, 0.000000000000000000 ) ) ;
#183 = DATE_AND_TIME ( #110, #238 ) ;
#184 = ORIENTED_EDGE ( 'NONE', *, *, #201, .T. ) ;
#185 = LOCAL_TIME ( 17, 39, 51.00000000000000000, #35 ) ;
#186 = CARTESIAN_POINT ( 'NONE',  ( -1.250000000000000000, 0.000000000000000000, 2.000000000000000000 ) ) ;
#187 = APPROVAL_ROLE ( '' ) ;
#188 = CARTESIAN_POINT ( 'NONE',  ( 2.500000000000000000, 3.061616997868383141E-16, 0.000000000000000000 ) ) ;
#189 = CIRCLE ( 'NONE', #38, 1.250000000000000000 ) ;
#190 = DIRECTION ( 'NONE',  ( 0.000000000000000000, 0.000000000000000000, 1.000000000000000000 ) ) ;
#191 = EDGE_CURVE ( 'NONE', #32, #10, #249, .T. ) ;
#192 = DIRECTION ( 'NONE',  ( -0.000000000000000000, -0.000000000000000000, -1.000000000000000000 ) ) ;
#193 = EDGE_CURVE ( 'NONE', #254, #10, #235, .T. ) ;
#194 = AXIS2_PLACEMENT_3D ( 'NONE', #232, #214, #253 ) ;
#195 = AXIS2_PLACEMENT_3D ( 'NONE', #103, #200, #143 ) ;
#196 = SHAPE_DEFINITION_REPRESENTATION ( #109, #106 ) ;
#197 = COORDINATED_UNIVERSAL_TIME_OFFSET ( 1, 0, .AHEAD. ) ;
#198 = CARTESIAN_POINT ( 'NONE',  ( 0.000000000000000000, 0.000000000000000000, 315.0000000000000000 ) ) ;
#199 = LOCAL_TIME ( 17, 39, 51.00000000000000000, #231 ) ;
#200 = DIRECTION ( 'NONE',  ( -0.000000000000000000, -0.000000000000000000, -1.000000000000000000 ) ) ;
#201 = EDGE_CURVE ( 'NONE', #76, #67, #60, .T. ) ;
#202 = PERSON_AND_ORGANIZATION ( #96, #57 ) ;
#203 = ORIENTED_EDGE ( 'NONE', *, *, #169, .T. ) ;
#204 = DATE_AND_TIME ( #36, #199 ) ;
#205 = CARTESIAN_POINT ( 'NONE',  ( 0.000000000000000000, 0.000000000000000000, 2.000000000000000000 ) ) ;
#206 =( NAMED_UNIT ( * ) PLANE_ANGLE_UNIT ( ) SI_UNIT ( $, .RADIAN. ) );
#207 = APPROVAL_STATUS ( 'not_yet_approved' ) ;
#208 = FACE_OUTER_BOUND ( 'NONE', #152, .T. ) ;
#209 = CARTESIAN_POINT ( 'NONE',  ( 0.000000000000000000, 0.000000000000000000, 0.000000000000000000 ) ) ;
#210 = DIRECTION ( 'NONE',  ( 1.000000000000000000, 0.000000000000000000, 0.000000000000000000 ) ) ;
#211 =( NAMED_UNIT ( * ) SI_UNIT ( $, .STERADIAN. ) SOLID_ANGLE_UNIT ( ) );
#212 = LOCAL_TIME ( 17, 39, 51.00000000000000000, #24 ) ;
#213 = PERSON_AND_ORGANIZATION_ROLE ( 'design_supplier' ) ;
#214 = DIRECTION ( 'NONE',  ( 0.000000000000000000, 0.000000000000000000, 1.000000000000000000 ) ) ;
#215 =( LENGTH_UNIT ( ) NAMED_UNIT ( * ) SI_UNIT ( .MILLI., .METRE. ) );
#216 = CARTESIAN_POINT ( 'NONE',  ( -2.500000000000000000, 0.000000000000000000, 0.000000000000000000 ) ) ;
#217 = APPLICATION_CONTEXT ( 'configuration controlled 3d designs of mechanical parts and assemblies' ) ;
#218 = ORIENTED_EDGE ( 'NONE', *, *, #25, .F. ) ;
#219 = CARTESIAN_POINT ( 'NONE',  ( -1.250000000000000000, 0.000000000000000000, 315.0000000000000000 ) ) ;
#220 = DIRECTION ( 'NONE',  ( 1.000000000000000000, 0.000000000000000000, 0.000000000000000000 ) ) ;
#221 = APPROVAL ( #65, 'NEURÈENÝ' ) ;
#222 = ORIENTED_EDGE ( 'NONE', *, *, #89, .F. ) ;
#223 = APPROVAL_DATE_TIME ( #63, #221 ) ;
#224 = LINE ( 'NONE', #70, #94 ) ;
#225 = PERSON_AND_ORGANIZATION ( #96, #57 ) ;
#226 = CC_DESIGN_APPROVAL ( #59, ( #159 ) ) ;
#227 = LINE ( 'NONE', #167, #255 ) ;
#228 = DATE_TIME_ROLE ( 'creation_date' ) ;
#229 = CYLINDRICAL_SURFACE ( 'NONE', #195, 2.500000000000000000 ) ;
#230 = DIRECTION ( 'NONE',  ( -0.000000000000000000, -0.000000000000000000, -1.000000000000000000 ) ) ;
#231 = COORDINATED_UNIVERSAL_TIME_OFFSET ( 1, 0, .AHEAD. ) ;
#232 = CARTESIAN_POINT ( 'NONE',  ( 0.000000000000000000, 0.000000000000000000, 315.0000000000000000 ) ) ;
#233 = UNCERTAINTY_MEASURE_WITH_UNIT (LENGTH_MEASURE( 1.000000000000000082E-05 ), #215, 'distance_accuracy_value', 'NONE');
#234 = AXIS2_PLACEMENT_3D ( 'NONE', #164, #243, #69 ) ;
#235 = LINE ( 'NONE', #58, #91 ) ;
#236 = DIRECTION ( 'NONE',  ( 0.000000000000000000, 0.000000000000000000, 1.000000000000000000 ) ) ;
#237 = PERSON_AND_ORGANIZATION_ROLE ( 'classification_officer' ) ;
#238 = LOCAL_TIME ( 17, 39, 51.00000000000000000, #197 ) ;
#239 = ORIENTED_EDGE ( 'NONE', *, *, #25, .T. ) ;
#240 = ORIENTED_EDGE ( 'NONE', *, *, #43, .F. ) ;
#241 = EDGE_LOOP ( 'NONE', ( #218, #184, #203, #222 ) ) ;
#242 = DIRECTION ( 'NONE',  ( -1.000000000000000000, 0.000000000000000000, 0.000000000000000000 ) ) ;
#243 = DIRECTION ( 'NONE',  ( 0.000000000000000000, 0.000000000000000000, 1.000000000000000000 ) ) ;
#244 = CARTESIAN_POINT ( 'NONE',  ( 0.000000000000000000, 0.000000000000000000, 2.000000000000000000 ) ) ;
#245 = DIRECTION ( 'NONE',  ( 1.000000000000000000, 0.000000000000000000, 0.000000000000000000 ) ) ;
#246 = AXIS2_PLACEMENT_3D ( 'NONE', #29, #236, #154 ) ;
#247 = APPROVAL ( #207, 'NEURÈENÝ' ) ;
#248 = PERSON_AND_ORGANIZATION_ROLE ( 'design_owner' ) ;
#249 = CIRCLE ( 'NONE', #170, 2.500000000000000000 ) ;
#250 = CC_DESIGN_APPROVAL ( #221, ( #157 ) ) ;
#251 = CARTESIAN_POINT ( 'NONE',  ( 0.000000000000000000, 0.000000000000000000, 0.000000000000000000 ) ) ;
#252 = DIRECTION ( 'NONE',  ( 1.000000000000000000, 0.000000000000000000, -0.000000000000000000 ) ) ;
#253 = DIRECTION ( 'NONE',  ( 1.000000000000000000, 0.000000000000000000, -0.000000000000000000 ) ) ;
#254 = VERTEX_POINT ( 'NONE', #21 ) ;
#255 = VECTOR ( 'NONE', #230, 1000.000000000000000 ) ;
ENDSEC;
END-ISO-10303-21;
