ISO-10303-21;
HEADER;
FILE_DESCRIPTION (( 'STEP AP203' ),
    '1' );
FILE_NAME ('a014.STEP',
    '2022-07-07T17:17:06',
    ( '' ),
    ( '' ),
    'SwSTEP 2.0',
    'SolidWorks 2019',
    '' );
FILE_SCHEMA (( 'CONFIG_CONTROL_DESIGN' ));
ENDSEC;

DATA;
#1 = EDGE_LOOP ( 'NONE', ( #35, #239 ) ) ;
#2 = APPROVAL_DATE_TIME ( #252, #91 ) ;
#3 = APPROVAL_PERSON_ORGANIZATION ( #101, #129, #26 ) ;
#4 = ORIENTED_EDGE ( 'NONE', *, *, #221, .T. ) ;
#5 = AXIS2_PLACEMENT_3D ( 'NONE', #196, #95, #178 ) ;
#6 = VECTOR ( 'NONE', #8, 1000.000000000000000 ) ;
#7 = EDGE_CURVE ( 'NONE', #164, #74, #124, .T. ) ;
#8 = DIRECTION ( 'NONE',  ( -0.000000000000000000, -0.000000000000000000, -1.000000000000000000 ) ) ;
#9 = APPROVAL ( #121, 'NEURÈENÝ' ) ;
#10 = VERTEX_POINT ( 'NONE', #228 ) ;
#11 = DIRECTION ( 'NONE',  ( 1.000000000000000000, 0.000000000000000000, -0.000000000000000000 ) ) ;
#12 = EDGE_LOOP ( 'NONE', ( #235, #127, #67, #44 ) ) ;
#13 = DIRECTION ( 'NONE',  ( -1.000000000000000000, 0.000000000000000000, 0.000000000000000000 ) ) ;
#14 = PRODUCT ( 'a014', 'a014', '', ( #87 ) ) ;
#15 = LINE ( 'NONE', #147, #83 ) ;
#16 = AXIS2_PLACEMENT_3D ( 'NONE', #107, #76, #231 ) ;
#17 = DIRECTION ( 'NONE',  ( 1.000000000000000000, 0.000000000000000000, 0.000000000000000000 ) ) ;
#18 = APPROVAL_STATUS ( 'not_yet_approved' ) ;
#19 = DIRECTION ( 'NONE',  ( -0.000000000000000000, -0.000000000000000000, -1.000000000000000000 ) ) ;
#20 = PERSON_AND_ORGANIZATION ( #191, #193 ) ;
#21 = DIRECTION ( 'NONE',  ( -0.000000000000000000, -0.000000000000000000, -1.000000000000000000 ) ) ;
#22 = MANIFOLD_SOLID_BREP ( 'Pøidat vysunutím3', #63 ) ;
#23 = EDGE_CURVE ( 'NONE', #110, #244, #111, .T. ) ;
#24 = SECURITY_CLASSIFICATION_LEVEL ( 'unclassified' ) ;
#25 = CYLINDRICAL_SURFACE ( 'NONE', #122, 11.00000000000000000 ) ;
#26 = APPROVAL_ROLE ( '' ) ;
#27 = ORIENTED_EDGE ( 'NONE', *, *, #69, .F. ) ;
#28 = APPLICATION_CONTEXT ( 'configuration controlled 3d designs of mechanical parts and assemblies' ) ;
#29 = PRODUCT_DEFINITION_SHAPE ( 'NONE', 'NONE',  #59 ) ;
#30 = EDGE_CURVE ( 'NONE', #237, #105, #222, .T. ) ;
#31 = DIRECTION ( 'NONE',  ( 1.000000000000000000, 0.000000000000000000, 0.000000000000000000 ) ) ;
#32 = AXIS2_PLACEMENT_3D ( 'NONE', #33, #157, #216 ) ;
#33 = CARTESIAN_POINT ( 'NONE',  ( 0.000000000000000000, 0.000000000000000000, 7.000000000000000000 ) ) ;
#34 = DIRECTION ( 'NONE',  ( 1.000000000000000000, 0.000000000000000000, 0.000000000000000000 ) ) ;
#35 = ORIENTED_EDGE ( 'NONE', *, *, #132, .F. ) ;
#36 =( NAMED_UNIT ( * ) SI_UNIT ( $, .STERADIAN. ) SOLID_ANGLE_UNIT ( ) );
#37 = EDGE_LOOP ( 'NONE', ( #246, #133 ) ) ;
#38 = FACE_OUTER_BOUND ( 'NONE', #12, .T. ) ;
#39 = CARTESIAN_POINT ( 'NONE',  ( 0.000000000000000000, 0.000000000000000000, 0.000000000000000000 ) ) ;
#40 = AXIS2_PLACEMENT_3D ( 'NONE', #153, #192, #11 ) ;
#41 = APPROVAL_PERSON_ORGANIZATION ( #48, #91, #215 ) ;
#42 = PERSON_AND_ORGANIZATION_ROLE ( 'creator' ) ;
#43 = COORDINATED_UNIVERSAL_TIME_OFFSET ( 1, 0, .AHEAD. ) ;
#44 = ORIENTED_EDGE ( 'NONE', *, *, #203, .F. ) ;
#45 = CC_DESIGN_PERSON_AND_ORGANIZATION_ASSIGNMENT ( #20, #42, ( #167 ) ) ;
#46 = SHAPE_DEFINITION_REPRESENTATION ( #29, #66 ) ;
#47 = EDGE_LOOP ( 'NONE', ( #137, #161 ) ) ;
#48 = PERSON_AND_ORGANIZATION ( #191, #193 ) ;
#49 = ORIENTED_EDGE ( 'NONE', *, *, #203, .T. ) ;
#50 = DESIGN_CONTEXT ( 'detailed design', #227, 'design' ) ;
#51 = AXIS2_PLACEMENT_3D ( 'NONE', #206, #134, #34 ) ;
#52 = CARTESIAN_POINT ( 'NONE',  ( 0.000000000000000000, 0.000000000000000000, 7.000000000000000000 ) ) ;
#53 = FACE_BOUND ( 'NONE', #1, .T. ) ;
#54 = DIRECTION ( 'NONE',  ( -1.000000000000000000, 0.000000000000000000, 0.000000000000000000 ) ) ;
#55 =( LENGTH_UNIT ( ) NAMED_UNIT ( * ) SI_UNIT ( .MILLI., .METRE. ) );
#56 = ORIENTED_EDGE ( 'NONE', *, *, #152, .F. ) ;
#57 = CARTESIAN_POINT ( 'NONE',  ( 0.000000000000000000, 0.000000000000000000, 167.0000000000000000 ) ) ;
#58 = COORDINATED_UNIVERSAL_TIME_OFFSET ( 1, 0, .AHEAD. ) ;
#59 = PRODUCT_DEFINITION ( 'NEZNÁMÝ', '', #167, #50 ) ;
#60 = ORIENTED_EDGE ( 'NONE', *, *, #23, .T. ) ;
#61 = PERSON_AND_ORGANIZATION_ROLE ( 'creator' ) ;
#62 = CARTESIAN_POINT ( 'NONE',  ( -11.00000000000000000, 0.000000000000000000, 7.000000000000000000 ) ) ;
#63 = CLOSED_SHELL ( 'NONE', ( #200, #186, #146, #207, #165, #102, #112 ) ) ;
#64 = CALENDAR_DATE ( 2022, 7, 7 ) ;
#65 = LOCAL_TIME ( 19, 17, 6.000000000000000000, #172 ) ;
#66 = ADVANCED_BREP_SHAPE_REPRESENTATION ( 'a014', ( #22, #106 ), #185 ) ;
#67 = ORIENTED_EDGE ( 'NONE', *, *, #242, .T. ) ;
#68 = AXIS2_PLACEMENT_3D ( 'NONE', #57, #89, #243 ) ;
#69 = EDGE_CURVE ( 'NONE', #169, #110, #180, .T. ) ;
#70 = CC_DESIGN_APPROVAL ( #129, ( #167 ) ) ;
#71 = PLANE ( 'NONE',  #75 ) ;
#72 = CARTESIAN_POINT ( 'NONE',  ( 11.00000000000000000, 1.347111479062088405E-15, 0.000000000000000000 ) ) ;
#73 = CARTESIAN_POINT ( 'NONE',  ( 0.000000000000000000, 0.000000000000000000, 7.000000000000000000 ) ) ;
#74 = VERTEX_POINT ( 'NONE', #72 ) ;
#75 = AXIS2_PLACEMENT_3D ( 'NONE', #149, #229, #113 ) ;
#76 = DIRECTION ( 'NONE',  ( -0.000000000000000000, -0.000000000000000000, -1.000000000000000000 ) ) ;
#77 = PERSON_AND_ORGANIZATION ( #191, #193 ) ;
#78 = DIRECTION ( 'NONE',  ( 1.000000000000000000, 0.000000000000000000, 0.000000000000000000 ) ) ;
#79 = APPLICATION_PROTOCOL_DEFINITION ( 'international standard', 'config_control_design', 1994, #227 ) ;
#80 = FACE_OUTER_BOUND ( 'NONE', #47, .T. ) ;
#81 = CALENDAR_DATE ( 2022, 7, 7 ) ;
#82 = VECTOR ( 'NONE', #19, 1000.000000000000000 ) ;
#83 = VECTOR ( 'NONE', #171, 1000.000000000000000 ) ;
#84 = ORIENTED_EDGE ( 'NONE', *, *, #160, .T. ) ;
#85 = ORIENTED_EDGE ( 'NONE', *, *, #23, .F. ) ;
#86 = EDGE_CURVE ( 'NONE', #169, #10, #148, .T. ) ;
#87 = MECHANICAL_CONTEXT ( 'NONE', #28, 'mechanical' ) ;
#88 = DIRECTION ( 'NONE',  ( 1.000000000000000000, 0.000000000000000000, 0.000000000000000000 ) ) ;
#89 = DIRECTION ( 'NONE',  ( 0.000000000000000000, 0.000000000000000000, 1.000000000000000000 ) ) ;
#90 = DIRECTION ( 'NONE',  ( 1.000000000000000000, 0.000000000000000000, 0.000000000000000000 ) ) ;
#91 = APPROVAL ( #234, 'NEURÈENÝ' ) ;
#92 = DIRECTION ( 'NONE',  ( -0.000000000000000000, -0.000000000000000000, -1.000000000000000000 ) ) ;
#93 = FACE_OUTER_BOUND ( 'NONE', #119, .T. ) ;
#94 = DATE_AND_TIME ( #198, #143 ) ;
#95 = DIRECTION ( 'NONE',  ( 0.000000000000000000, 0.000000000000000000, 1.000000000000000000 ) ) ;
#96 = PERSON_AND_ORGANIZATION ( #191, #193 ) ;
#97 = DIRECTION ( 'NONE',  ( -0.000000000000000000, -0.000000000000000000, -1.000000000000000000 ) ) ;
#98 = LOCAL_TIME ( 19, 17, 6.000000000000000000, #43 ) ;
#99 = CALENDAR_DATE ( 2022, 7, 7 ) ;
#100 = ORIENTED_EDGE ( 'NONE', *, *, #166, .F. ) ;
#101 = PERSON_AND_ORGANIZATION ( #191, #193 ) ;
#102 = ADVANCED_FACE ( 'NONE', ( #139 ), #170, .T. ) ;
#103 = ORIENTED_EDGE ( 'NONE', *, *, #86, .F. ) ;
#104 = CIRCLE ( 'NONE', #68, 6.500000000000000888 ) ;
#105 = VERTEX_POINT ( 'NONE', #62 ) ;
#106 = AXIS2_PLACEMENT_3D ( 'NONE', #39, #250, #126 ) ;
#107 = CARTESIAN_POINT ( 'NONE',  ( 0.000000000000000000, 0.000000000000000000, 7.000000000000000000 ) ) ;
#108 = EDGE_LOOP ( 'NONE', ( #100, #60, #84, #103 ) ) ;
#109 = CARTESIAN_POINT ( 'NONE',  ( 6.500000000000000888, 7.960204194457796463E-16, 7.000000000000000000 ) ) ;
#110 = VERTEX_POINT ( 'NONE', #205 ) ;
#111 = LINE ( 'NONE', #120, #82 ) ;
#112 = ADVANCED_FACE ( 'NONE', ( #80 ), #199, .T. ) ;
#113 = DIRECTION ( 'NONE',  ( 1.000000000000000000, 0.000000000000000000, -0.000000000000000000 ) ) ;
#114 = AXIS2_PLACEMENT_3D ( 'NONE', #251, #214, #88 ) ;
#115 = CYLINDRICAL_SURFACE ( 'NONE', #16, 11.00000000000000000 ) ;
#116 = CIRCLE ( 'NONE', #51, 11.00000000000000000 ) ;
#117 = APPROVAL_DATE_TIME ( #94, #9 ) ;
#118 = APPROVAL_DATE_TIME ( #201, #129 ) ;
#119 = EDGE_LOOP ( 'NONE', ( #4, #182 ) ) ;
#120 = CARTESIAN_POINT ( 'NONE',  ( 6.500000000000000888, 7.960204194457796463E-16, 167.0000000000000000 ) ) ;
#121 = APPROVAL_STATUS ( 'not_yet_approved' ) ;
#122 = AXIS2_PLACEMENT_3D ( 'NONE', #52, #225, #54 ) ;
#123 = CC_DESIGN_PERSON_AND_ORGANIZATION_ASSIGNMENT ( #77, #254, ( #14 ) ) ;
#124 = CIRCLE ( 'NONE', #159, 11.00000000000000000 ) ;
#125 = CIRCLE ( 'NONE', #32, 6.500000000000000888 ) ;
#126 = DIRECTION ( 'NONE',  ( 1.000000000000000000, 0.000000000000000000, 0.000000000000000000 ) ) ;
#127 = ORIENTED_EDGE ( 'NONE', *, *, #152, .T. ) ;
#128 = DIRECTION ( 'NONE',  ( 0.000000000000000000, 0.000000000000000000, 1.000000000000000000 ) ) ;
#129 = APPROVAL ( #18, 'NEURÈENÝ' ) ;
#130 = LINE ( 'NONE', #204, #6 ) ;
#131 = CC_DESIGN_APPROVAL ( #9, ( #59 ) ) ;
#132 = EDGE_CURVE ( 'NONE', #10, #244, #125, .T. ) ;
#133 = ORIENTED_EDGE ( 'NONE', *, *, #242, .F. ) ;
#134 = DIRECTION ( 'NONE',  ( 0.000000000000000000, 0.000000000000000000, 1.000000000000000000 ) ) ;
#135 = PERSON_AND_ORGANIZATION ( #191, #193 ) ;
#136 = CC_DESIGN_SECURITY_CLASSIFICATION ( #150, ( #167 ) ) ;
#137 = ORIENTED_EDGE ( 'NONE', *, *, #69, .T. ) ;
#138 = DATE_AND_TIME ( #81, #98 ) ;
#139 = FACE_OUTER_BOUND ( 'NONE', #208, .T. ) ;
#140 = CC_DESIGN_DATE_AND_TIME_ASSIGNMENT ( #232, #142, ( #150 ) ) ;
#141 = AXIS2_PLACEMENT_3D ( 'NONE', #73, #230, #31 ) ;
#142 = DATE_TIME_ROLE ( 'classification_date' ) ;
#143 = LOCAL_TIME ( 19, 17, 6.000000000000000000, #213 ) ;
#144 = ORIENTED_EDGE ( 'NONE', *, *, #132, .T. ) ;
#145 = CARTESIAN_POINT ( 'NONE',  ( 0.000000000000000000, 0.000000000000000000, 167.0000000000000000 ) ) ;
#146 = ADVANCED_FACE ( 'NONE', ( #223 ), #25, .T. ) ;
#147 = CARTESIAN_POINT ( 'NONE',  ( -11.00000000000000000, 0.000000000000000000, 7.000000000000000000 ) ) ;
#148 = LINE ( 'NONE', #177, #219 ) ;
#149 = CARTESIAN_POINT ( 'NONE',  ( 0.000000000000000000, 0.000000000000000000, 7.000000000000000000 ) ) ;
#150 = SECURITY_CLASSIFICATION ( '', '', #24 ) ;
#151 = CARTESIAN_POINT ( 'NONE',  ( 11.00000000000000000, 1.347111479062088405E-15, 7.000000000000000000 ) ) ;
#152 = EDGE_CURVE ( 'NONE', #237, #74, #130, .T. ) ;
#153 = CARTESIAN_POINT ( 'NONE',  ( 0.000000000000000000, 0.000000000000000000, 0.000000000000000000 ) ) ;
#154 = APPROVAL_ROLE ( '' ) ;
#155 = ORIENTED_EDGE ( 'NONE', *, *, #221, .F. ) ;
#156 = PERSON_AND_ORGANIZATION ( #191, #193 ) ;
#157 = DIRECTION ( 'NONE',  ( 0.000000000000000000, 0.000000000000000000, 1.000000000000000000 ) ) ;
#158 = COORDINATED_UNIVERSAL_TIME_OFFSET ( 1, 0, .AHEAD. ) ;
#159 = AXIS2_PLACEMENT_3D ( 'NONE', #174, #211, #90 ) ;
#160 = EDGE_CURVE ( 'NONE', #244, #10, #240, .T. ) ;
#161 = ORIENTED_EDGE ( 'NONE', *, *, #166, .T. ) ;
#162 = AXIS2_PLACEMENT_3D ( 'NONE', #226, #128, #17 ) ;
#163 = ORIENTED_EDGE ( 'NONE', *, *, #86, .T. ) ;
#164 = VERTEX_POINT ( 'NONE', #189 ) ;
#165 = ADVANCED_FACE ( 'NONE', ( #212 ), #248, .F. ) ;
#166 = EDGE_CURVE ( 'NONE', #110, #169, #104, .T. ) ;
#167 = PRODUCT_DEFINITION_FORMATION_WITH_SPECIFIED_SOURCE ( 'LIBOVOLNÝ', '', #14, .NOT_KNOWN. ) ;
#168 = CARTESIAN_POINT ( 'NONE',  ( -6.500000000000000888, 0.000000000000000000, 167.0000000000000000 ) ) ;
#169 = VERTEX_POINT ( 'NONE', #168 ) ;
#170 = CYLINDRICAL_SURFACE ( 'NONE', #173, 6.500000000000000888 ) ;
#171 = DIRECTION ( 'NONE',  ( -0.000000000000000000, -0.000000000000000000, -1.000000000000000000 ) ) ;
#172 = COORDINATED_UNIVERSAL_TIME_OFFSET ( 1, 0, .AHEAD. ) ;
#173 = AXIS2_PLACEMENT_3D ( 'NONE', #145, #97, #253 ) ;
#174 = CARTESIAN_POINT ( 'NONE',  ( 0.000000000000000000, 0.000000000000000000, 0.000000000000000000 ) ) ;
#175 = CC_DESIGN_DATE_AND_TIME_ASSIGNMENT ( #138, #195, ( #59 ) ) ;
#176 = PERSON_AND_ORGANIZATION_ROLE ( 'design_supplier' ) ;
#177 = CARTESIAN_POINT ( 'NONE',  ( -6.500000000000000888, 0.000000000000000000, 167.0000000000000000 ) ) ;
#178 = DIRECTION ( 'NONE',  ( 1.000000000000000000, 0.000000000000000000, -0.000000000000000000 ) ) ;
#179 = CALENDAR_DATE ( 2022, 7, 7 ) ;
#180 = CIRCLE ( 'NONE', #247, 6.500000000000000888 ) ;
#181 = CC_DESIGN_APPROVAL ( #91, ( #150 ) ) ;
#182 = ORIENTED_EDGE ( 'NONE', *, *, #30, .T. ) ;
#183 = LOCAL_TIME ( 19, 17, 6.000000000000000000, #158 ) ;
#184 = CC_DESIGN_PERSON_AND_ORGANIZATION_ASSIGNMENT ( #217, #236, ( #150 ) ) ;
#185 =( GEOMETRIC_REPRESENTATION_CONTEXT ( 3 ) GLOBAL_UNCERTAINTY_ASSIGNED_CONTEXT ( ( #238 ) ) GLOBAL_UNIT_ASSIGNED_CONTEXT ( ( #55, #210, #36 ) ) REPRESENTATION_CONTEXT ( 'NONE', 'WORKASPACE' ) );
#186 = ADVANCED_FACE ( 'NONE', ( #38 ), #115, .T. ) ;
#187 = ORIENTED_EDGE ( 'NONE', *, *, #7, .T. ) ;
#188 = AXIS2_PLACEMENT_3D ( 'NONE', #224, #92, #13 ) ;
#189 = CARTESIAN_POINT ( 'NONE',  ( -11.00000000000000000, 0.000000000000000000, 0.000000000000000000 ) ) ;
#190 = EDGE_LOOP ( 'NONE', ( #56, #155, #49, #187 ) ) ;
#191 = PERSON ( 'NEURÈENÝ', 'NEURÈENÝ', 'NEURÈENÝ', ('NEURÈENÝ'), ('NEURÈENÝ'), ('NEURÈENÝ') ) ;
#192 = DIRECTION ( 'NONE',  ( 0.000000000000000000, 0.000000000000000000, 1.000000000000000000 ) ) ;
#193 = ORGANIZATION ( 'NEURÈENÝ', 'NEURÈENÝ', '' ) ;
#194 = FACE_OUTER_BOUND ( 'NONE', #108, .T. ) ;
#195 = DATE_TIME_ROLE ( 'creation_date' ) ;
#196 = CARTESIAN_POINT ( 'NONE',  ( 0.000000000000000000, 0.000000000000000000, 167.0000000000000000 ) ) ;
#197 = DIRECTION ( 'NONE',  ( 0.000000000000000000, 0.000000000000000000, 1.000000000000000000 ) ) ;
#198 = CALENDAR_DATE ( 2022, 7, 7 ) ;
#199 = PLANE ( 'NONE',  #5 ) ;
#200 = ADVANCED_FACE ( 'NONE', ( #194 ), #245, .T. ) ;
#201 = DATE_AND_TIME ( #179, #183 ) ;
#202 = CC_DESIGN_PERSON_AND_ORGANIZATION_ASSIGNMENT ( #96, #176, ( #167 ) ) ;
#203 = EDGE_CURVE ( 'NONE', #105, #164, #15, .T. ) ;
#204 = CARTESIAN_POINT ( 'NONE',  ( 11.00000000000000000, 1.347111479062088405E-15, 7.000000000000000000 ) ) ;
#205 = CARTESIAN_POINT ( 'NONE',  ( 6.500000000000000888, 7.960204194457796463E-16, 167.0000000000000000 ) ) ;
#206 = CARTESIAN_POINT ( 'NONE',  ( 0.000000000000000000, 0.000000000000000000, 0.000000000000000000 ) ) ;
#207 = ADVANCED_FACE ( 'NONE', ( #53, #93 ), #71, .T. ) ;
#208 = EDGE_LOOP ( 'NONE', ( #85, #27, #163, #144 ) ) ;
#209 = CIRCLE ( 'NONE', #162, 11.00000000000000000 ) ;
#210 =( NAMED_UNIT ( * ) PLANE_ANGLE_UNIT ( ) SI_UNIT ( $, .RADIAN. ) );
#211 = DIRECTION ( 'NONE',  ( 0.000000000000000000, 0.000000000000000000, 1.000000000000000000 ) ) ;
#212 = FACE_OUTER_BOUND ( 'NONE', #37, .T. ) ;
#213 = COORDINATED_UNIVERSAL_TIME_OFFSET ( 1, 0, .AHEAD. ) ;
#214 = DIRECTION ( 'NONE',  ( 0.000000000000000000, 0.000000000000000000, 1.000000000000000000 ) ) ;
#215 = APPROVAL_ROLE ( '' ) ;
#216 = DIRECTION ( 'NONE',  ( 1.000000000000000000, 0.000000000000000000, 0.000000000000000000 ) ) ;
#217 = PERSON_AND_ORGANIZATION ( #191, #193 ) ;
#218 = APPROVAL_PERSON_ORGANIZATION ( #135, #9, #154 ) ;
#219 = VECTOR ( 'NONE', #21, 1000.000000000000000 ) ;
#220 = CC_DESIGN_PERSON_AND_ORGANIZATION_ASSIGNMENT ( #156, #61, ( #59 ) ) ;
#221 = EDGE_CURVE ( 'NONE', #105, #237, #209, .T. ) ;
#222 = CIRCLE ( 'NONE', #114, 11.00000000000000000 ) ;
#223 = FACE_OUTER_BOUND ( 'NONE', #190, .T. ) ;
#224 = CARTESIAN_POINT ( 'NONE',  ( 0.000000000000000000, 0.000000000000000000, 167.0000000000000000 ) ) ;
#225 = DIRECTION ( 'NONE',  ( -0.000000000000000000, -0.000000000000000000, -1.000000000000000000 ) ) ;
#226 = CARTESIAN_POINT ( 'NONE',  ( 0.000000000000000000, 0.000000000000000000, 7.000000000000000000 ) ) ;
#227 = APPLICATION_CONTEXT ( 'configuration controlled 3d designs of mechanical parts and assemblies' ) ;
#228 = CARTESIAN_POINT ( 'NONE',  ( -6.500000000000000888, 0.000000000000000000, 7.000000000000000000 ) ) ;
#229 = DIRECTION ( 'NONE',  ( 0.000000000000000000, 0.000000000000000000, 1.000000000000000000 ) ) ;
#230 = DIRECTION ( 'NONE',  ( 0.000000000000000000, 0.000000000000000000, 1.000000000000000000 ) ) ;
#231 = DIRECTION ( 'NONE',  ( -1.000000000000000000, 0.000000000000000000, 0.000000000000000000 ) ) ;
#232 = DATE_AND_TIME ( #64, #241 ) ;
#233 = CARTESIAN_POINT ( 'NONE',  ( 0.000000000000000000, 0.000000000000000000, 167.0000000000000000 ) ) ;
#234 = APPROVAL_STATUS ( 'not_yet_approved' ) ;
#235 = ORIENTED_EDGE ( 'NONE', *, *, #30, .F. ) ;
#236 = PERSON_AND_ORGANIZATION_ROLE ( 'classification_officer' ) ;
#237 = VERTEX_POINT ( 'NONE', #151 ) ;
#238 = UNCERTAINTY_MEASURE_WITH_UNIT (LENGTH_MEASURE( 1.000000000000000082E-05 ), #55, 'distance_accuracy_value', 'NONE');
#239 = ORIENTED_EDGE ( 'NONE', *, *, #160, .F. ) ;
#240 = CIRCLE ( 'NONE', #141, 6.500000000000000888 ) ;
#241 = LOCAL_TIME ( 19, 17, 6.000000000000000000, #58 ) ;
#242 = EDGE_CURVE ( 'NONE', #74, #164, #116, .T. ) ;
#243 = DIRECTION ( 'NONE',  ( 1.000000000000000000, 0.000000000000000000, 0.000000000000000000 ) ) ;
#244 = VERTEX_POINT ( 'NONE', #109 ) ;
#245 = CYLINDRICAL_SURFACE ( 'NONE', #188, 6.500000000000000888 ) ;
#246 = ORIENTED_EDGE ( 'NONE', *, *, #7, .F. ) ;
#247 = AXIS2_PLACEMENT_3D ( 'NONE', #233, #197, #78 ) ;
#248 = PLANE ( 'NONE',  #40 ) ;
#249 = APPLICATION_PROTOCOL_DEFINITION ( 'international standard', 'config_control_design', 1994, #28 ) ;
#250 = DIRECTION ( 'NONE',  ( 0.000000000000000000, 0.000000000000000000, 1.000000000000000000 ) ) ;
#251 = CARTESIAN_POINT ( 'NONE',  ( 0.000000000000000000, 0.000000000000000000, 7.000000000000000000 ) ) ;
#252 = DATE_AND_TIME ( #99, #65 ) ;
#253 = DIRECTION ( 'NONE',  ( -1.000000000000000000, 0.000000000000000000, 0.000000000000000000 ) ) ;
#254 = PERSON_AND_ORGANIZATION_ROLE ( 'design_owner' ) ;
#255 = PRODUCT_RELATED_PRODUCT_CATEGORY ( 'detail', '', ( #14 ) ) ;
ENDSEC;
END-ISO-10303-21;
