ISO-10303-21;
HEADER;
FILE_DESCRIPTION (( 'STEP AP203' ),
    '1' );
FILE_NAME ('f6e2.STEP',
    '2023-02-13T11:35:37',
    ( '' ),
    ( '' ),
    'SwSTEP 2.0',
    'SolidWorks 2019',
    '' );
FILE_SCHEMA (( 'CONFIG_CONTROL_DESIGN' ));
ENDSEC;

DATA;
#1 = DATE_TIME_ROLE ( 'creation_date' ) ;
#2 = PERSON ( 'NEURÈENÝ', 'NEURÈENÝ', 'NEURÈENÝ', ('NEURÈENÝ'), ('NEURÈENÝ'), ('NEURÈENÝ') ) ;
#3 = PERSON_AND_ORGANIZATION_ROLE ( 'creator' ) ;
#4 = LOCAL_TIME ( 12, 35, 37.00000000000000000, #65 ) ;
#5 = PERSON_AND_ORGANIZATION ( #2, #225 ) ;
#6 = DIRECTION ( 'NONE',  ( 0.000000000000000000, 0.000000000000000000, 1.000000000000000000 ) ) ;
#7 = AXIS2_PLACEMENT_3D ( 'NONE', #190, #219, #62 ) ;
#8 = SHAPE_DEFINITION_REPRESENTATION ( #183, #114 ) ;
#9 = EDGE_CURVE ( 'NONE', #240, #72, #89, .T. ) ;
#10 = CARTESIAN_POINT ( 'NONE',  ( 0.000000000000000000, 0.000000000000000000, 315.0000000000000000 ) ) ;
#11 = DIRECTION ( 'NONE',  ( -0.000000000000000000, -0.000000000000000000, -1.000000000000000000 ) ) ;
#12 = APPROVAL_DATE_TIME ( #239, #33 ) ;
#13 = CC_DESIGN_DATE_AND_TIME_ASSIGNMENT ( #115, #1, ( #63 ) ) ;
#14 = DIRECTION ( 'NONE',  ( -0.000000000000000000, -0.000000000000000000, -1.000000000000000000 ) ) ;
#15 = LOCAL_TIME ( 12, 35, 37.00000000000000000, #154 ) ;
#16 = ORIENTED_EDGE ( 'NONE', *, *, #110, .T. ) ;
#17 = EDGE_CURVE ( 'NONE', #100, #72, #80, .T. ) ;
#18 = PLANE ( 'NONE',  #69 ) ;
#19 = CIRCLE ( 'NONE', #209, 11.00000000000000000 ) ;
#20 = ORIENTED_EDGE ( 'NONE', *, *, #94, .F. ) ;
#21 = ORIENTED_EDGE ( 'NONE', *, *, #163, .F. ) ;
#22 = CALENDAR_DATE ( 2023, 13, 2 ) ;
#23 = APPLICATION_CONTEXT ( 'configuration controlled 3d designs of mechanical parts and assemblies' ) ;
#24 = AXIS2_PLACEMENT_3D ( 'NONE', #198, #27, #214 ) ;
#25 = AXIS2_PLACEMENT_3D ( 'NONE', #141, #146, #98 ) ;
#26 = DIRECTION ( 'NONE',  ( 1.000000000000000000, 0.000000000000000000, -0.000000000000000000 ) ) ;
#27 = DIRECTION ( 'NONE',  ( 0.000000000000000000, 0.000000000000000000, 1.000000000000000000 ) ) ;
#28 = ADVANCED_FACE ( 'NONE', ( #254 ), #54, .T. ) ;
#29 = DIRECTION ( 'NONE',  ( -0.000000000000000000, -0.000000000000000000, -1.000000000000000000 ) ) ;
#30 = ORIENTED_EDGE ( 'NONE', *, *, #163, .T. ) ;
#31 = VECTOR ( 'NONE', #143, 1000.000000000000000 ) ;
#32 = DATE_TIME_ROLE ( 'classification_date' ) ;
#33 = APPROVAL ( #218, 'NEURÈENÝ' ) ;
#34 = ADVANCED_FACE ( 'NONE', ( #155 ), #37, .T. ) ;
#35 = CIRCLE ( 'NONE', #24, 11.00000000000000000 ) ;
#36 = FACE_OUTER_BOUND ( 'NONE', #57, .T. ) ;
#37 = CYLINDRICAL_SURFACE ( 'NONE', #83, 6.500000000000000888 ) ;
#38 = VECTOR ( 'NONE', #29, 1000.000000000000000 ) ;
#39 = CARTESIAN_POINT ( 'NONE',  ( 11.00000000000000000, 1.347111479062088405E-15, 0.000000000000000000 ) ) ;
#40 = ORIENTED_EDGE ( 'NONE', *, *, #151, .F. ) ;
#41 = ORIENTED_EDGE ( 'NONE', *, *, #94, .T. ) ;
#42 = CARTESIAN_POINT ( 'NONE',  ( 0.000000000000000000, 0.000000000000000000, 7.000000000000000000 ) ) ;
#43 = ORIENTED_EDGE ( 'NONE', *, *, #252, .T. ) ;
#44 = PRODUCT_DEFINITION_FORMATION_WITH_SPECIFIED_SOURCE ( 'LIBOVOLNÝ', '', #212, .NOT_KNOWN. ) ;
#45 = EDGE_LOOP ( 'NONE', ( #160, #20, #134, #243 ) ) ;
#46 = COORDINATED_UNIVERSAL_TIME_OFFSET ( 1, 0, .AHEAD. ) ;
#47 = DIRECTION ( 'NONE',  ( 0.000000000000000000, 0.000000000000000000, 1.000000000000000000 ) ) ;
#48 = PERSON_AND_ORGANIZATION_ROLE ( 'design_owner' ) ;
#49 = DATE_AND_TIME ( #165, #158 ) ;
#50 = APPROVAL_STATUS ( 'not_yet_approved' ) ;
#51 = CARTESIAN_POINT ( 'NONE',  ( -6.500000000000000888, 0.000000000000000000, 315.0000000000000000 ) ) ;
#52 = DATE_AND_TIME ( #170, #15 ) ;
#53 =( GEOMETRIC_REPRESENTATION_CONTEXT ( 3 ) GLOBAL_UNCERTAINTY_ASSIGNED_CONTEXT ( ( #101 ) ) GLOBAL_UNIT_ASSIGNED_CONTEXT ( ( #182, #176, #178 ) ) REPRESENTATION_CONTEXT ( 'NONE', 'WORKASPACE' ) );
#54 = CYLINDRICAL_SURFACE ( 'NONE', #111, 6.500000000000000888 ) ;
#55 = AXIS2_PLACEMENT_3D ( 'NONE', #186, #14, #87 ) ;
#56 = EDGE_CURVE ( 'NONE', #149, #109, #228, .T. ) ;
#57 = EDGE_LOOP ( 'NONE', ( #153, #132, #43, #246 ) ) ;
#58 = CC_DESIGN_SECURITY_CLASSIFICATION ( #216, ( #44 ) ) ;
#59 = DIRECTION ( 'NONE',  ( 0.000000000000000000, 0.000000000000000000, 1.000000000000000000 ) ) ;
#60 = FACE_OUTER_BOUND ( 'NONE', #162, .T. ) ;
#61 = PERSON_AND_ORGANIZATION ( #2, #225 ) ;
#62 = DIRECTION ( 'NONE',  ( 1.000000000000000000, 0.000000000000000000, 0.000000000000000000 ) ) ;
#63 = PRODUCT_DEFINITION ( 'NEZNÁMÝ', '', #44, #197 ) ;
#64 = CARTESIAN_POINT ( 'NONE',  ( 0.000000000000000000, 0.000000000000000000, 0.000000000000000000 ) ) ;
#65 = COORDINATED_UNIVERSAL_TIME_OFFSET ( 1, 0, .AHEAD. ) ;
#66 = CLOSED_SHELL ( 'NONE', ( #28, #99, #241, #202, #251, #34, #93 ) ) ;
#67 = PLANE ( 'NONE',  #206 ) ;
#68 = PERSON_AND_ORGANIZATION ( #2, #225 ) ;
#69 = AXIS2_PLACEMENT_3D ( 'NONE', #103, #168, #249 ) ;
#70 = EDGE_CURVE ( 'NONE', #136, #109, #236, .T. ) ;
#71 = DIRECTION ( 'NONE',  ( 1.000000000000000000, 0.000000000000000000, -0.000000000000000000 ) ) ;
#72 = VERTEX_POINT ( 'NONE', #39 ) ;
#73 = CC_DESIGN_APPROVAL ( #232, ( #44 ) ) ;
#74 = APPLICATION_PROTOCOL_DEFINITION ( 'international standard', 'config_control_design', 1994, #23 ) ;
#75 = CC_DESIGN_PERSON_AND_ORGANIZATION_ASSIGNMENT ( #61, #48, ( #212 ) ) ;
#76 = DIRECTION ( 'NONE',  ( -0.000000000000000000, -0.000000000000000000, -1.000000000000000000 ) ) ;
#77 = AXIS2_PLACEMENT_3D ( 'NONE', #204, #123, #144 ) ;
#78 = CIRCLE ( 'NONE', #77, 6.500000000000000888 ) ;
#79 = DIRECTION ( 'NONE',  ( -1.000000000000000000, 0.000000000000000000, 0.000000000000000000 ) ) ;
#80 = LINE ( 'NONE', #133, #213 ) ;
#81 = CARTESIAN_POINT ( 'NONE',  ( 0.000000000000000000, 0.000000000000000000, 0.000000000000000000 ) ) ;
#82 = FACE_BOUND ( 'NONE', #129, .T. ) ;
#83 = AXIS2_PLACEMENT_3D ( 'NONE', #107, #76, #105 ) ;
#84 = PERSON_AND_ORGANIZATION ( #2, #225 ) ;
#85 = DIRECTION ( 'NONE',  ( 0.000000000000000000, 0.000000000000000000, 1.000000000000000000 ) ) ;
#86 = CARTESIAN_POINT ( 'NONE',  ( 0.000000000000000000, 0.000000000000000000, 315.0000000000000000 ) ) ;
#87 = DIRECTION ( 'NONE',  ( -1.000000000000000000, 0.000000000000000000, 0.000000000000000000 ) ) ;
#88 = CC_DESIGN_PERSON_AND_ORGANIZATION_ASSIGNMENT ( #224, #3, ( #44 ) ) ;
#89 = CIRCLE ( 'NONE', #120, 11.00000000000000000 ) ;
#90 = ORIENTED_EDGE ( 'NONE', *, *, #70, .T. ) ;
#91 = AXIS2_PLACEMENT_3D ( 'NONE', #194, #179, #79 ) ;
#92 = FACE_OUTER_BOUND ( 'NONE', #188, .T. ) ;
#93 = ADVANCED_FACE ( 'NONE', ( #60 ), #18, .T. ) ;
#94 = EDGE_CURVE ( 'NONE', #149, #173, #150, .T. ) ;
#95 = ORIENTED_EDGE ( 'NONE', *, *, #9, .F. ) ;
#96 = APPROVAL_DATE_TIME ( #52, #232 ) ;
#97 = ORIENTED_EDGE ( 'NONE', *, *, #17, .F. ) ;
#98 = DIRECTION ( 'NONE',  ( 1.000000000000000000, 0.000000000000000000, 0.000000000000000000 ) ) ;
#99 = ADVANCED_FACE ( 'NONE', ( #36 ), #104, .T. ) ;
#100 = VERTEX_POINT ( 'NONE', #169 ) ;
#101 = UNCERTAINTY_MEASURE_WITH_UNIT (LENGTH_MEASURE( 1.000000000000000082E-05 ), #182, 'distance_accuracy_value', 'NONE');
#102 = CARTESIAN_POINT ( 'NONE',  ( 6.500000000000000888, 7.960204194457796463E-16, 315.0000000000000000 ) ) ;
#103 = CARTESIAN_POINT ( 'NONE',  ( 0.000000000000000000, 0.000000000000000000, 315.0000000000000000 ) ) ;
#104 = CYLINDRICAL_SURFACE ( 'NONE', #55, 11.00000000000000000 ) ;
#105 = DIRECTION ( 'NONE',  ( -1.000000000000000000, 0.000000000000000000, 0.000000000000000000 ) ) ;
#106 = APPROVAL_PERSON_ORGANIZATION ( #181, #33, #244 ) ;
#107 = CARTESIAN_POINT ( 'NONE',  ( 0.000000000000000000, 0.000000000000000000, 315.0000000000000000 ) ) ;
#108 = EDGE_LOOP ( 'NONE', ( #21, #130, #90, #152 ) ) ;
#109 = VERTEX_POINT ( 'NONE', #250 ) ;
#110 = EDGE_CURVE ( 'NONE', #230, #100, #35, .T. ) ;
#111 = AXIS2_PLACEMENT_3D ( 'NONE', #86, #207, #208 ) ;
#112 = ORIENTED_EDGE ( 'NONE', *, *, #70, .F. ) ;
#113 = CALENDAR_DATE ( 2023, 13, 2 ) ;
#114 = ADVANCED_BREP_SHAPE_REPRESENTATION ( 'f6e2', ( #229, #187 ), #53 ) ;
#115 = DATE_AND_TIME ( #113, #147 ) ;
#116 = CARTESIAN_POINT ( 'NONE',  ( 0.000000000000000000, 0.000000000000000000, 7.000000000000000000 ) ) ;
#117 = PERSON_AND_ORGANIZATION ( #2, #225 ) ;
#118 = DIRECTION ( 'NONE',  ( 1.000000000000000000, 0.000000000000000000, 0.000000000000000000 ) ) ;
#119 = ORIENTED_EDGE ( 'NONE', *, *, #110, .F. ) ;
#120 = AXIS2_PLACEMENT_3D ( 'NONE', #81, #175, #177 ) ;
#121 = COORDINATED_UNIVERSAL_TIME_OFFSET ( 1, 0, .AHEAD. ) ;
#122 = APPLICATION_CONTEXT ( 'configuration controlled 3d designs of mechanical parts and assemblies' ) ;
#123 = DIRECTION ( 'NONE',  ( 0.000000000000000000, 0.000000000000000000, 1.000000000000000000 ) ) ;
#124 = DATE_AND_TIME ( #145, #131 ) ;
#125 = EDGE_CURVE ( 'NONE', #100, #230, #193, .T. ) ;
#126 = AXIS2_PLACEMENT_3D ( 'NONE', #42, #59, #211 ) ;
#127 = DIRECTION ( 'NONE',  ( 1.000000000000000000, 0.000000000000000000, 0.000000000000000000 ) ) ;
#128 = EDGE_CURVE ( 'NONE', #230, #240, #248, .T. ) ;
#129 = EDGE_LOOP ( 'NONE', ( #40, #112 ) ) ;
#130 = ORIENTED_EDGE ( 'NONE', *, *, #148, .T. ) ;
#131 = LOCAL_TIME ( 12, 35, 37.00000000000000000, #121 ) ;
#132 = ORIENTED_EDGE ( 'NONE', *, *, #17, .T. ) ;
#133 = CARTESIAN_POINT ( 'NONE',  ( 11.00000000000000000, 1.347111479062088405E-15, 7.000000000000000000 ) ) ;
#134 = ORIENTED_EDGE ( 'NONE', *, *, #56, .T. ) ;
#135 = DIRECTION ( 'NONE',  ( 0.000000000000000000, 0.000000000000000000, 1.000000000000000000 ) ) ;
#136 = VERTEX_POINT ( 'NONE', #164 ) ;
#137 = PERSON_AND_ORGANIZATION_ROLE ( 'creator' ) ;
#138 = CARTESIAN_POINT ( 'NONE',  ( -11.00000000000000000, 0.000000000000000000, 0.000000000000000000 ) ) ;
#139 = PERSON_AND_ORGANIZATION_ROLE ( 'design_supplier' ) ;
#140 = VECTOR ( 'NONE', #11, 1000.000000000000000 ) ;
#141 = CARTESIAN_POINT ( 'NONE',  ( 0.000000000000000000, 0.000000000000000000, 315.0000000000000000 ) ) ;
#142 = PERSON_AND_ORGANIZATION_ROLE ( 'classification_officer' ) ;
#143 = DIRECTION ( 'NONE',  ( -0.000000000000000000, -0.000000000000000000, -1.000000000000000000 ) ) ;
#144 = DIRECTION ( 'NONE',  ( 1.000000000000000000, 0.000000000000000000, 0.000000000000000000 ) ) ;
#145 = CALENDAR_DATE ( 2023, 13, 2 ) ;
#146 = DIRECTION ( 'NONE',  ( 0.000000000000000000, 0.000000000000000000, 1.000000000000000000 ) ) ;
#147 = LOCAL_TIME ( 12, 35, 37.00000000000000000, #46 ) ;
#148 = EDGE_CURVE ( 'NONE', #173, #136, #161, .T. ) ;
#149 = VERTEX_POINT ( 'NONE', #51 ) ;
#150 = CIRCLE ( 'NONE', #242, 6.500000000000000888 ) ;
#151 = EDGE_CURVE ( 'NONE', #109, #136, #78, .T. ) ;
#152 = ORIENTED_EDGE ( 'NONE', *, *, #56, .F. ) ;
#153 = ORIENTED_EDGE ( 'NONE', *, *, #125, .F. ) ;
#154 = COORDINATED_UNIVERSAL_TIME_OFFSET ( 1, 0, .AHEAD. ) ;
#155 = FACE_OUTER_BOUND ( 'NONE', #45, .T. ) ;
#156 = PLANE ( 'NONE',  #238 ) ;
#157 = DIRECTION ( 'NONE',  ( -0.000000000000000000, -0.000000000000000000, -1.000000000000000000 ) ) ;
#158 = LOCAL_TIME ( 12, 35, 37.00000000000000000, #205 ) ;
#159 = CC_DESIGN_DATE_AND_TIME_ASSIGNMENT ( #49, #32, ( #216 ) ) ;
#160 = ORIENTED_EDGE ( 'NONE', *, *, #148, .F. ) ;
#161 = LINE ( 'NONE', #102, #31 ) ;
#162 = EDGE_LOOP ( 'NONE', ( #41, #30 ) ) ;
#163 = EDGE_CURVE ( 'NONE', #173, #149, #195, .T. ) ;
#164 = CARTESIAN_POINT ( 'NONE',  ( 6.500000000000000888, 7.960204194457796463E-16, 7.000000000000000000 ) ) ;
#165 = CALENDAR_DATE ( 2023, 13, 2 ) ;
#166 = CC_DESIGN_APPROVAL ( #191, ( #216 ) ) ;
#167 = CARTESIAN_POINT ( 'NONE',  ( 0.000000000000000000, 0.000000000000000000, 0.000000000000000000 ) ) ;
#168 = DIRECTION ( 'NONE',  ( 0.000000000000000000, 0.000000000000000000, 1.000000000000000000 ) ) ;
#169 = CARTESIAN_POINT ( 'NONE',  ( 11.00000000000000000, 1.347111479062088405E-15, 7.000000000000000000 ) ) ;
#170 = CALENDAR_DATE ( 2023, 13, 2 ) ;
#171 = MECHANICAL_CONTEXT ( 'NONE', #23, 'mechanical' ) ;
#172 = CC_DESIGN_PERSON_AND_ORGANIZATION_ASSIGNMENT ( #5, #142, ( #216 ) ) ;
#173 = VERTEX_POINT ( 'NONE', #221 ) ;
#174 = PERSON_AND_ORGANIZATION ( #2, #225 ) ;
#175 = DIRECTION ( 'NONE',  ( 0.000000000000000000, 0.000000000000000000, 1.000000000000000000 ) ) ;
#176 =( NAMED_UNIT ( * ) PLANE_ANGLE_UNIT ( ) SI_UNIT ( $, .RADIAN. ) );
#177 = DIRECTION ( 'NONE',  ( 1.000000000000000000, 0.000000000000000000, 0.000000000000000000 ) ) ;
#178 =( NAMED_UNIT ( * ) SI_UNIT ( $, .STERADIAN. ) SOLID_ANGLE_UNIT ( ) );
#179 = DIRECTION ( 'NONE',  ( -0.000000000000000000, -0.000000000000000000, -1.000000000000000000 ) ) ;
#180 = PRODUCT_RELATED_PRODUCT_CATEGORY ( 'detail', '', ( #212 ) ) ;
#181 = PERSON_AND_ORGANIZATION ( #2, #225 ) ;
#182 =( LENGTH_UNIT ( ) NAMED_UNIT ( * ) SI_UNIT ( .MILLI., .METRE. ) );
#183 = PRODUCT_DEFINITION_SHAPE ( 'NONE', 'NONE',  #63 ) ;
#184 = CARTESIAN_POINT ( 'NONE',  ( -11.00000000000000000, 0.000000000000000000, 7.000000000000000000 ) ) ;
#185 = APPROVAL_PERSON_ORGANIZATION ( #68, #232, #253 ) ;
#186 = CARTESIAN_POINT ( 'NONE',  ( 0.000000000000000000, 0.000000000000000000, 7.000000000000000000 ) ) ;
#187 = AXIS2_PLACEMENT_3D ( 'NONE', #167, #6, #203 ) ;
#188 = EDGE_LOOP ( 'NONE', ( #95, #210 ) ) ;
#189 = EDGE_LOOP ( 'NONE', ( #16, #255 ) ) ;
#190 = CARTESIAN_POINT ( 'NONE',  ( 0.000000000000000000, 0.000000000000000000, 7.000000000000000000 ) ) ;
#191 = APPROVAL ( #50, 'NEURÈENÝ' ) ;
#192 = APPROVAL_STATUS ( 'not_yet_approved' ) ;
#193 = CIRCLE ( 'NONE', #7, 11.00000000000000000 ) ;
#194 = CARTESIAN_POINT ( 'NONE',  ( 0.000000000000000000, 0.000000000000000000, 7.000000000000000000 ) ) ;
#195 = CIRCLE ( 'NONE', #25, 6.500000000000000888 ) ;
#196 = APPLICATION_PROTOCOL_DEFINITION ( 'international standard', 'config_control_design', 1994, #122 ) ;
#197 = DESIGN_CONTEXT ( 'detailed design', #122, 'design' ) ;
#198 = CARTESIAN_POINT ( 'NONE',  ( 0.000000000000000000, 0.000000000000000000, 7.000000000000000000 ) ) ;
#199 = APPROVAL_ROLE ( '' ) ;
#200 = SECURITY_CLASSIFICATION_LEVEL ( 'unclassified' ) ;
#201 = CC_DESIGN_APPROVAL ( #33, ( #63 ) ) ;
#202 = ADVANCED_FACE ( 'NONE', ( #82, #237 ), #67, .T. ) ;
#203 = DIRECTION ( 'NONE',  ( 1.000000000000000000, 0.000000000000000000, 0.000000000000000000 ) ) ;
#204 = CARTESIAN_POINT ( 'NONE',  ( 0.000000000000000000, 0.000000000000000000, 7.000000000000000000 ) ) ;
#205 = COORDINATED_UNIVERSAL_TIME_OFFSET ( 1, 0, .AHEAD. ) ;
#206 = AXIS2_PLACEMENT_3D ( 'NONE', #116, #47, #26 ) ;
#207 = DIRECTION ( 'NONE',  ( -0.000000000000000000, -0.000000000000000000, -1.000000000000000000 ) ) ;
#208 = DIRECTION ( 'NONE',  ( -1.000000000000000000, 0.000000000000000000, 0.000000000000000000 ) ) ;
#209 = AXIS2_PLACEMENT_3D ( 'NONE', #64, #135, #118 ) ;
#210 = ORIENTED_EDGE ( 'NONE', *, *, #252, .F. ) ;
#211 = DIRECTION ( 'NONE',  ( 1.000000000000000000, 0.000000000000000000, 0.000000000000000000 ) ) ;
#212 = PRODUCT ( 'f6e2', 'f6e2', '', ( #171 ) ) ;
#213 = VECTOR ( 'NONE', #157, 1000.000000000000000 ) ;
#214 = DIRECTION ( 'NONE',  ( 1.000000000000000000, 0.000000000000000000, 0.000000000000000000 ) ) ;
#215 = DIRECTION ( 'NONE',  ( 0.000000000000000000, 0.000000000000000000, 1.000000000000000000 ) ) ;
#216 = SECURITY_CLASSIFICATION ( '', '', #200 ) ;
#217 = CYLINDRICAL_SURFACE ( 'NONE', #91, 11.00000000000000000 ) ;
#218 = APPROVAL_STATUS ( 'not_yet_approved' ) ;
#219 = DIRECTION ( 'NONE',  ( 0.000000000000000000, 0.000000000000000000, 1.000000000000000000 ) ) ;
#220 = CC_DESIGN_PERSON_AND_ORGANIZATION_ASSIGNMENT ( #84, #139, ( #44 ) ) ;
#221 = CARTESIAN_POINT ( 'NONE',  ( 6.500000000000000888, 7.960204194457796463E-16, 315.0000000000000000 ) ) ;
#222 = FACE_OUTER_BOUND ( 'NONE', #223, .T. ) ;
#223 = EDGE_LOOP ( 'NONE', ( #97, #119, #235, #227 ) ) ;
#224 = PERSON_AND_ORGANIZATION ( #2, #225 ) ;
#225 = ORGANIZATION ( 'NEURÈENÝ', 'NEURÈENÝ', '' ) ;
#226 = CARTESIAN_POINT ( 'NONE',  ( -11.00000000000000000, 0.000000000000000000, 7.000000000000000000 ) ) ;
#227 = ORIENTED_EDGE ( 'NONE', *, *, #9, .T. ) ;
#228 = LINE ( 'NONE', #231, #140 ) ;
#229 = MANIFOLD_SOLID_BREP ( 'Pøidat vysunutím3', #66 ) ;
#230 = VERTEX_POINT ( 'NONE', #184 ) ;
#231 = CARTESIAN_POINT ( 'NONE',  ( -6.500000000000000888, 0.000000000000000000, 315.0000000000000000 ) ) ;
#232 = APPROVAL ( #192, 'NEURÈENÝ' ) ;
#233 = CARTESIAN_POINT ( 'NONE',  ( 0.000000000000000000, 0.000000000000000000, 0.000000000000000000 ) ) ;
#234 = CC_DESIGN_PERSON_AND_ORGANIZATION_ASSIGNMENT ( #174, #137, ( #63 ) ) ;
#235 = ORIENTED_EDGE ( 'NONE', *, *, #128, .T. ) ;
#236 = CIRCLE ( 'NONE', #126, 6.500000000000000888 ) ;
#237 = FACE_OUTER_BOUND ( 'NONE', #189, .T. ) ;
#238 = AXIS2_PLACEMENT_3D ( 'NONE', #233, #215, #71 ) ;
#239 = DATE_AND_TIME ( #22, #4 ) ;
#240 = VERTEX_POINT ( 'NONE', #138 ) ;
#241 = ADVANCED_FACE ( 'NONE', ( #222 ), #217, .T. ) ;
#242 = AXIS2_PLACEMENT_3D ( 'NONE', #10, #85, #127 ) ;
#243 = ORIENTED_EDGE ( 'NONE', *, *, #151, .T. ) ;
#244 = APPROVAL_ROLE ( '' ) ;
#245 = APPROVAL_DATE_TIME ( #124, #191 ) ;
#246 = ORIENTED_EDGE ( 'NONE', *, *, #128, .F. ) ;
#247 = APPROVAL_PERSON_ORGANIZATION ( #117, #191, #199 ) ;
#248 = LINE ( 'NONE', #226, #38 ) ;
#249 = DIRECTION ( 'NONE',  ( 1.000000000000000000, 0.000000000000000000, -0.000000000000000000 ) ) ;
#250 = CARTESIAN_POINT ( 'NONE',  ( -6.500000000000000888, 0.000000000000000000, 7.000000000000000000 ) ) ;
#251 = ADVANCED_FACE ( 'NONE', ( #92 ), #156, .F. ) ;
#252 = EDGE_CURVE ( 'NONE', #72, #240, #19, .T. ) ;
#253 = APPROVAL_ROLE ( '' ) ;
#254 = FACE_OUTER_BOUND ( 'NONE', #108, .T. ) ;
#255 = ORIENTED_EDGE ( 'NONE', *, *, #125, .T. ) ;
ENDSEC;
END-ISO-10303-21;
