ISO-10303-21;
HEADER;
FILE_DESCRIPTION (( 'STEP AP203' ),
    '1' );
FILE_NAME ('2cd9.STEP',
    '2022-07-07T17:30:25',
    ( '' ),
    ( '' ),
    'SwSTEP 2.0',
    'SolidWorks 2019',
    '' );
FILE_SCHEMA (( 'CONFIG_CONTROL_DESIGN' ));
ENDSEC;

DATA;
#1 = DIRECTION ( 'NONE',  ( -1.000000000000000000, 0.000000000000000000, 0.000000000000000000 ) ) ;
#2 = CARTESIAN_POINT ( 'NONE',  ( 7.000000000000000000, 8.572527594031473190E-16, 5.000000000000000000 ) ) ;
#3 = ORIENTED_EDGE ( 'NONE', *, *, #101, .T. ) ;
#4 = ORIENTED_EDGE ( 'NONE', *, *, #131, .T. ) ;
#5 = PRODUCT ( '2cd9', '2cd9', '', ( #17 ) ) ;
#6 = ORIENTED_EDGE ( 'NONE', *, *, #39, .F. ) ;
#7 = APPROVAL_STATUS ( 'not_yet_approved' ) ;
#8 = APPROVAL ( #14, 'NEURÈENÝ' ) ;
#9 = APPROVAL_DATE_TIME ( #49, #144 ) ;
#10 = CC_DESIGN_APPROVAL ( #144, ( #119 ) ) ;
#11 = APPROVAL_DATE_TIME ( #227, #198 ) ;
#12 = DATE_AND_TIME ( #148, #250 ) ;
#13 = DIRECTION ( 'NONE',  ( 0.000000000000000000, 0.000000000000000000, 1.000000000000000000 ) ) ;
#14 = APPROVAL_STATUS ( 'not_yet_approved' ) ;
#15 = AXIS2_PLACEMENT_3D ( 'NONE', #26, #82, #162 ) ;
#16 = DIRECTION ( 'NONE',  ( 1.000000000000000000, 0.000000000000000000, 0.000000000000000000 ) ) ;
#17 = MECHANICAL_CONTEXT ( 'NONE', #94, 'mechanical' ) ;
#18 = CC_DESIGN_DATE_AND_TIME_ASSIGNMENT ( #248, #222, ( #143 ) ) ;
#19 = CIRCLE ( 'NONE', #124, 7.000000000000000000 ) ;
#20 = ORIENTED_EDGE ( 'NONE', *, *, #131, .F. ) ;
#21 = DIRECTION ( 'NONE',  ( 1.000000000000000000, 0.000000000000000000, -0.000000000000000000 ) ) ;
#22 = ORIENTED_EDGE ( 'NONE', *, *, #43, .T. ) ;
#23 = ADVANCED_FACE ( 'NONE', ( #255 ), #197, .T. ) ;
#24 = CARTESIAN_POINT ( 'NONE',  ( 0.000000000000000000, 0.000000000000000000, 0.000000000000000000 ) ) ;
#25 = DIRECTION ( 'NONE',  ( 0.000000000000000000, 0.000000000000000000, 1.000000000000000000 ) ) ;
#26 = CARTESIAN_POINT ( 'NONE',  ( 0.000000000000000000, 0.000000000000000000, 165.0000000000000000 ) ) ;
#27 = VERTEX_POINT ( 'NONE', #116 ) ;
#28 = CC_DESIGN_PERSON_AND_ORGANIZATION_ASSIGNMENT ( #89, #77, ( #5 ) ) ;
#29 = ADVANCED_FACE ( 'NONE', ( #36, #52 ), #160, .T. ) ;
#30 = VECTOR ( 'NONE', #75, 1000.000000000000000 ) ;
#31 =( NAMED_UNIT ( * ) PLANE_ANGLE_UNIT ( ) SI_UNIT ( $, .RADIAN. ) );
#32 = DIRECTION ( 'NONE',  ( -0.000000000000000000, -0.000000000000000000, -1.000000000000000000 ) ) ;
#33 = CARTESIAN_POINT ( 'NONE',  ( 0.000000000000000000, 0.000000000000000000, 0.000000000000000000 ) ) ;
#34 = DIRECTION ( 'NONE',  ( 1.000000000000000000, 0.000000000000000000, 0.000000000000000000 ) ) ;
#35 = FACE_OUTER_BOUND ( 'NONE', #55, .T. ) ;
#36 = FACE_BOUND ( 'NONE', #41, .T. ) ;
#37 = FACE_OUTER_BOUND ( 'NONE', #100, .T. ) ;
#38 = ORIENTED_EDGE ( 'NONE', *, *, #151, .T. ) ;
#39 = EDGE_CURVE ( 'NONE', #105, #134, #215, .T. ) ;
#40 = ORIENTED_EDGE ( 'NONE', *, *, #249, .F. ) ;
#41 = EDGE_LOOP ( 'NONE', ( #118, #42 ) ) ;
#42 = ORIENTED_EDGE ( 'NONE', *, *, #64, .F. ) ;
#43 = EDGE_CURVE ( 'NONE', #58, #140, #103, .T. ) ;
#44 = VECTOR ( 'NONE', #236, 1000.000000000000000 ) ;
#45 = AXIS2_PLACEMENT_3D ( 'NONE', #211, #192, #21 ) ;
#46 = CALENDAR_DATE ( 2022, 7, 7 ) ;
#47 = PERSON_AND_ORGANIZATION_ROLE ( 'classification_officer' ) ;
#48 = DIRECTION ( 'NONE',  ( 0.000000000000000000, 0.000000000000000000, 1.000000000000000000 ) ) ;
#49 = DATE_AND_TIME ( #241, #63 ) ;
#50 = DIRECTION ( 'NONE',  ( -0.000000000000000000, -0.000000000000000000, -1.000000000000000000 ) ) ;
#51 = CARTESIAN_POINT ( 'NONE',  ( 0.000000000000000000, 0.000000000000000000, 0.000000000000000000 ) ) ;
#52 = FACE_OUTER_BOUND ( 'NONE', #141, .T. ) ;
#53 = DIRECTION ( 'NONE',  ( 1.000000000000000000, 0.000000000000000000, 0.000000000000000000 ) ) ;
#54 = CC_DESIGN_PERSON_AND_ORGANIZATION_ASSIGNMENT ( #189, #66, ( #119 ) ) ;
#55 = EDGE_LOOP ( 'NONE', ( #123, #193 ) ) ;
#56 = APPROVAL_PERSON_ORGANIZATION ( #186, #8, #169 ) ;
#57 = EDGE_LOOP ( 'NONE', ( #200, #232, #120, #6 ) ) ;
#58 = VERTEX_POINT ( 'NONE', #2 ) ;
#59 = ADVANCED_FACE ( 'NONE', ( #237 ), #199, .T. ) ;
#60 = AXIS2_PLACEMENT_3D ( 'NONE', #179, #80, #16 ) ;
#61 =( GEOMETRIC_REPRESENTATION_CONTEXT ( 3 ) GLOBAL_UNCERTAINTY_ASSIGNED_CONTEXT ( ( #194 ) ) GLOBAL_UNIT_ASSIGNED_CONTEXT ( ( #156, #31, #106 ) ) REPRESENTATION_CONTEXT ( 'NONE', 'WORKASPACE' ) );
#62 = ADVANCED_BREP_SHAPE_REPRESENTATION ( '2cd9', ( #218, #74 ), #61 ) ;
#63 = LOCAL_TIME ( 19, 30, 25.00000000000000000, #91 ) ;
#64 = EDGE_CURVE ( 'NONE', #158, #134, #142, .T. ) ;
#65 = SHAPE_DEFINITION_REPRESENTATION ( #139, #62 ) ;
#66 = PERSON_AND_ORGANIZATION_ROLE ( 'creator' ) ;
#67 = AXIS2_PLACEMENT_3D ( 'NONE', #226, #48, #135 ) ;
#68 = PERSON_AND_ORGANIZATION_ROLE ( 'design_supplier' ) ;
#69 = CYLINDRICAL_SURFACE ( 'NONE', #191, 7.000000000000000000 ) ;
#70 = SECURITY_CLASSIFICATION_LEVEL ( 'unclassified' ) ;
#71 = DIRECTION ( 'NONE',  ( 0.000000000000000000, 0.000000000000000000, 1.000000000000000000 ) ) ;
#72 = PERSON_AND_ORGANIZATION ( #214, #125 ) ;
#73 = PERSON_AND_ORGANIZATION ( #214, #125 ) ;
#74 = AXIS2_PLACEMENT_3D ( 'NONE', #33, #108, #253 ) ;
#75 = DIRECTION ( 'NONE',  ( -0.000000000000000000, -0.000000000000000000, -1.000000000000000000 ) ) ;
#76 = ORIENTED_EDGE ( 'NONE', *, *, #87, .T. ) ;
#77 = PERSON_AND_ORGANIZATION_ROLE ( 'design_owner' ) ;
#78 = PLANE ( 'NONE',  #225 ) ;
#79 = ORIENTED_EDGE ( 'NONE', *, *, #151, .F. ) ;
#80 = DIRECTION ( 'NONE',  ( 0.000000000000000000, 0.000000000000000000, 1.000000000000000000 ) ) ;
#81 = ORIENTED_EDGE ( 'NONE', *, *, #205, .T. ) ;
#82 = DIRECTION ( 'NONE',  ( -0.000000000000000000, -0.000000000000000000, -1.000000000000000000 ) ) ;
#83 = CARTESIAN_POINT ( 'NONE',  ( 0.000000000000000000, 0.000000000000000000, 5.000000000000000000 ) ) ;
#84 = APPROVAL_PERSON_ORGANIZATION ( #73, #144, #228 ) ;
#85 = CC_DESIGN_PERSON_AND_ORGANIZATION_ASSIGNMENT ( #223, #47, ( #143 ) ) ;
#86 = EDGE_CURVE ( 'NONE', #27, #158, #109, .T. ) ;
#87 = EDGE_CURVE ( 'NONE', #140, #95, #171, .T. ) ;
#88 = CARTESIAN_POINT ( 'NONE',  ( 4.250000000000000000, 5.204748896376250699E-16, 5.000000000000000000 ) ) ;
#89 = PERSON_AND_ORGANIZATION ( #214, #125 ) ;
#90 = CARTESIAN_POINT ( 'NONE',  ( 0.000000000000000000, 0.000000000000000000, 5.000000000000000000 ) ) ;
#91 = COORDINATED_UNIVERSAL_TIME_OFFSET ( 1, 0, .AHEAD. ) ;
#92 = CIRCLE ( 'NONE', #117, 7.000000000000000000 ) ;
#93 = CARTESIAN_POINT ( 'NONE',  ( 7.000000000000000000, 8.572527594031473190E-16, 0.000000000000000000 ) ) ;
#94 = APPLICATION_CONTEXT ( 'configuration controlled 3d designs of mechanical parts and assemblies' ) ;
#95 = VERTEX_POINT ( 'NONE', #96 ) ;
#96 = CARTESIAN_POINT ( 'NONE',  ( -7.000000000000000000, 0.000000000000000000, 0.000000000000000000 ) ) ;
#97 = CARTESIAN_POINT ( 'NONE',  ( -4.250000000000000000, 0.000000000000000000, 165.0000000000000000 ) ) ;
#98 = CC_DESIGN_DATE_AND_TIME_ASSIGNMENT ( #12, #221, ( #119 ) ) ;
#99 = CARTESIAN_POINT ( 'NONE',  ( 0.000000000000000000, 0.000000000000000000, 5.000000000000000000 ) ) ;
#100 = EDGE_LOOP ( 'NONE', ( #20, #239, #76, #38 ) ) ;
#101 = EDGE_CURVE ( 'NONE', #134, #158, #172, .T. ) ;
#102 = CC_DESIGN_APPROVAL ( #198, ( #143 ) ) ;
#103 = CIRCLE ( 'NONE', #224, 7.000000000000000000 ) ;
#104 = AXIS2_PLACEMENT_3D ( 'NONE', #196, #50, #210 ) ;
#105 = VERTEX_POINT ( 'NONE', #154 ) ;
#106 =( NAMED_UNIT ( * ) SI_UNIT ( $, .STERADIAN. ) SOLID_ANGLE_UNIT ( ) );
#107 = CIRCLE ( 'NONE', #67, 4.250000000000000000 ) ;
#108 = DIRECTION ( 'NONE',  ( 0.000000000000000000, 0.000000000000000000, 1.000000000000000000 ) ) ;
#109 = LINE ( 'NONE', #133, #146 ) ;
#110 = APPLICATION_PROTOCOL_DEFINITION ( 'international standard', 'config_control_design', 1994, #94 ) ;
#111 = CARTESIAN_POINT ( 'NONE',  ( 7.000000000000000000, 8.572527594031473190E-16, 5.000000000000000000 ) ) ;
#112 = ADVANCED_FACE ( 'NONE', ( #37 ), #69, .T. ) ;
#113 = AXIS2_PLACEMENT_3D ( 'NONE', #163, #252, #138 ) ;
#114 = DESIGN_CONTEXT ( 'detailed design', #166, 'design' ) ;
#115 = PLANE ( 'NONE',  #45 ) ;
#116 = CARTESIAN_POINT ( 'NONE',  ( 4.250000000000000000, 5.204748896376250699E-16, 165.0000000000000000 ) ) ;
#117 = AXIS2_PLACEMENT_3D ( 'NONE', #132, #209, #34 ) ;
#118 = ORIENTED_EDGE ( 'NONE', *, *, #101, .F. ) ;
#119 = PRODUCT_DEFINITION ( 'NEZNÁMÝ', '', #220, #114 ) ;
#120 = ORIENTED_EDGE ( 'NONE', *, *, #64, .T. ) ;
#121 = AXIS2_PLACEMENT_3D ( 'NONE', #83, #136, #213 ) ;
#122 = VERTEX_POINT ( 'NONE', #93 ) ;
#123 = ORIENTED_EDGE ( 'NONE', *, *, #145, .T. ) ;
#124 = AXIS2_PLACEMENT_3D ( 'NONE', #130, #13, #157 ) ;
#125 = ORGANIZATION ( 'NEURÈENÝ', 'NEURÈENÝ', '' ) ;
#126 = APPROVAL_DATE_TIME ( #174, #8 ) ;
#127 = CC_DESIGN_PERSON_AND_ORGANIZATION_ASSIGNMENT ( #187, #68, ( #220 ) ) ;
#128 = CLOSED_SHELL ( 'NONE', ( #164, #23, #112, #29, #137, #59, #238 ) ) ;
#129 = COORDINATED_UNIVERSAL_TIME_OFFSET ( 1, 0, .AHEAD. ) ;
#130 = CARTESIAN_POINT ( 'NONE',  ( 0.000000000000000000, 0.000000000000000000, 0.000000000000000000 ) ) ;
#131 = EDGE_CURVE ( 'NONE', #58, #122, #251, .T. ) ;
#132 = CARTESIAN_POINT ( 'NONE',  ( 0.000000000000000000, 0.000000000000000000, 5.000000000000000000 ) ) ;
#133 = CARTESIAN_POINT ( 'NONE',  ( 4.250000000000000000, 5.204748896376250699E-16, 165.0000000000000000 ) ) ;
#134 = VERTEX_POINT ( 'NONE', #231 ) ;
#135 = DIRECTION ( 'NONE',  ( 1.000000000000000000, 0.000000000000000000, 0.000000000000000000 ) ) ;
#136 = DIRECTION ( 'NONE',  ( -0.000000000000000000, -0.000000000000000000, -1.000000000000000000 ) ) ;
#137 = ADVANCED_FACE ( 'NONE', ( #254 ), #78, .F. ) ;
#138 = DIRECTION ( 'NONE',  ( 1.000000000000000000, 0.000000000000000000, -0.000000000000000000 ) ) ;
#139 = PRODUCT_DEFINITION_SHAPE ( 'NONE', 'NONE',  #119 ) ;
#140 = VERTEX_POINT ( 'NONE', #149 ) ;
#141 = EDGE_LOOP ( 'NONE', ( #81, #22 ) ) ;
#142 = CIRCLE ( 'NONE', #150, 4.250000000000000000 ) ;
#143 = SECURITY_CLASSIFICATION ( '', '', #70 ) ;
#144 = APPROVAL ( #233, 'NEURÈENÝ' ) ;
#145 = EDGE_CURVE ( 'NONE', #105, #27, #240, .T. ) ;
#146 = VECTOR ( 'NONE', #32, 1000.000000000000000 ) ;
#147 = EDGE_CURVE ( 'NONE', #27, #105, #107, .T. ) ;
#148 = CALENDAR_DATE ( 2022, 7, 7 ) ;
#149 = CARTESIAN_POINT ( 'NONE',  ( -7.000000000000000000, 0.000000000000000000, 5.000000000000000000 ) ) ;
#150 = AXIS2_PLACEMENT_3D ( 'NONE', #216, #247, #175 ) ;
#151 = EDGE_CURVE ( 'NONE', #95, #122, #19, .T. ) ;
#152 = DIRECTION ( 'NONE',  ( -0.000000000000000000, -0.000000000000000000, -1.000000000000000000 ) ) ;
#153 = COORDINATED_UNIVERSAL_TIME_OFFSET ( 1, 0, .AHEAD. ) ;
#154 = CARTESIAN_POINT ( 'NONE',  ( -4.250000000000000000, 0.000000000000000000, 165.0000000000000000 ) ) ;
#155 = DIRECTION ( 'NONE',  ( -0.000000000000000000, -0.000000000000000000, -1.000000000000000000 ) ) ;
#156 =( LENGTH_UNIT ( ) NAMED_UNIT ( * ) SI_UNIT ( .MILLI., .METRE. ) );
#157 = DIRECTION ( 'NONE',  ( 1.000000000000000000, 0.000000000000000000, 0.000000000000000000 ) ) ;
#158 = VERTEX_POINT ( 'NONE', #88 ) ;
#159 = DIRECTION ( 'NONE',  ( 1.000000000000000000, 0.000000000000000000, -0.000000000000000000 ) ) ;
#160 = PLANE ( 'NONE',  #113 ) ;
#161 = APPROVAL_PERSON_ORGANIZATION ( #72, #198, #173 ) ;
#162 = DIRECTION ( 'NONE',  ( -1.000000000000000000, 0.000000000000000000, 0.000000000000000000 ) ) ;
#163 = CARTESIAN_POINT ( 'NONE',  ( 0.000000000000000000, 0.000000000000000000, 5.000000000000000000 ) ) ;
#164 = ADVANCED_FACE ( 'NONE', ( #229 ), #244, .T. ) ;
#165 = ORIENTED_EDGE ( 'NONE', *, *, #249, .T. ) ;
#166 = APPLICATION_CONTEXT ( 'configuration controlled 3d designs of mechanical parts and assemblies' ) ;
#167 = ORIENTED_EDGE ( 'NONE', *, *, #43, .F. ) ;
#168 = CALENDAR_DATE ( 2022, 7, 7 ) ;
#169 = APPROVAL_ROLE ( '' ) ;
#170 = APPLICATION_PROTOCOL_DEFINITION ( 'international standard', 'config_control_design', 1994, #166 ) ;
#171 = LINE ( 'NONE', #177, #30 ) ;
#172 = CIRCLE ( 'NONE', #60, 4.250000000000000000 ) ;
#173 = APPROVAL_ROLE ( '' ) ;
#174 = DATE_AND_TIME ( #46, #217 ) ;
#175 = DIRECTION ( 'NONE',  ( 1.000000000000000000, 0.000000000000000000, 0.000000000000000000 ) ) ;
#176 = ORIENTED_EDGE ( 'NONE', *, *, #145, .F. ) ;
#177 = CARTESIAN_POINT ( 'NONE',  ( -7.000000000000000000, 0.000000000000000000, 5.000000000000000000 ) ) ;
#178 = EDGE_LOOP ( 'NONE', ( #79, #40 ) ) ;
#179 = CARTESIAN_POINT ( 'NONE',  ( 0.000000000000000000, 0.000000000000000000, 5.000000000000000000 ) ) ;
#180 = DIRECTION ( 'NONE',  ( 1.000000000000000000, 0.000000000000000000, 0.000000000000000000 ) ) ;
#181 = EDGE_LOOP ( 'NONE', ( #167, #4, #165, #201 ) ) ;
#182 = CIRCLE ( 'NONE', #185, 7.000000000000000000 ) ;
#183 = ORIENTED_EDGE ( 'NONE', *, *, #39, .T. ) ;
#184 = CC_DESIGN_APPROVAL ( #8, ( #220 ) ) ;
#185 = AXIS2_PLACEMENT_3D ( 'NONE', #24, #234, #53 ) ;
#186 = PERSON_AND_ORGANIZATION ( #214, #125 ) ;
#187 = PERSON_AND_ORGANIZATION ( #214, #125 ) ;
#188 = DIRECTION ( 'NONE',  ( 1.000000000000000000, 0.000000000000000000, 0.000000000000000000 ) ) ;
#189 = PERSON_AND_ORGANIZATION ( #214, #125 ) ;
#190 = DIRECTION ( 'NONE',  ( 0.000000000000000000, 0.000000000000000000, 1.000000000000000000 ) ) ;
#191 = AXIS2_PLACEMENT_3D ( 'NONE', #90, #152, #1 ) ;
#192 = DIRECTION ( 'NONE',  ( 0.000000000000000000, 0.000000000000000000, 1.000000000000000000 ) ) ;
#193 = ORIENTED_EDGE ( 'NONE', *, *, #147, .T. ) ;
#194 = UNCERTAINTY_MEASURE_WITH_UNIT (LENGTH_MEASURE( 1.000000000000000082E-05 ), #156, 'distance_accuracy_value', 'NONE');
#195 = ORIENTED_EDGE ( 'NONE', *, *, #86, .F. ) ;
#196 = CARTESIAN_POINT ( 'NONE',  ( 0.000000000000000000, 0.000000000000000000, 165.0000000000000000 ) ) ;
#197 = CYLINDRICAL_SURFACE ( 'NONE', #121, 7.000000000000000000 ) ;
#198 = APPROVAL ( #7, 'NEURÈENÝ' ) ;
#199 = CYLINDRICAL_SURFACE ( 'NONE', #15, 4.250000000000000000 ) ;
#200 = ORIENTED_EDGE ( 'NONE', *, *, #147, .F. ) ;
#201 = ORIENTED_EDGE ( 'NONE', *, *, #87, .F. ) ;
#202 = PRODUCT_RELATED_PRODUCT_CATEGORY ( 'detail', '', ( #5 ) ) ;
#203 = AXIS2_PLACEMENT_3D ( 'NONE', #208, #71, #188 ) ;
#204 = PERSON_AND_ORGANIZATION ( #214, #125 ) ;
#205 = EDGE_CURVE ( 'NONE', #140, #58, #92, .T. ) ;
#206 = CALENDAR_DATE ( 2022, 7, 7 ) ;
#207 = LOCAL_TIME ( 19, 30, 25.00000000000000000, #245 ) ;
#208 = CARTESIAN_POINT ( 'NONE',  ( 0.000000000000000000, 0.000000000000000000, 165.0000000000000000 ) ) ;
#209 = DIRECTION ( 'NONE',  ( 0.000000000000000000, 0.000000000000000000, 1.000000000000000000 ) ) ;
#210 = DIRECTION ( 'NONE',  ( -1.000000000000000000, 0.000000000000000000, 0.000000000000000000 ) ) ;
#211 = CARTESIAN_POINT ( 'NONE',  ( 0.000000000000000000, 0.000000000000000000, 165.0000000000000000 ) ) ;
#212 = LOCAL_TIME ( 19, 30, 25.00000000000000000, #243 ) ;
#213 = DIRECTION ( 'NONE',  ( -1.000000000000000000, 0.000000000000000000, 0.000000000000000000 ) ) ;
#214 = PERSON ( 'NEURÈENÝ', 'NEURÈENÝ', 'NEURÈENÝ', ('NEURÈENÝ'), ('NEURÈENÝ'), ('NEURÈENÝ') ) ;
#215 = LINE ( 'NONE', #97, #246 ) ;
#216 = CARTESIAN_POINT ( 'NONE',  ( 0.000000000000000000, 0.000000000000000000, 5.000000000000000000 ) ) ;
#217 = LOCAL_TIME ( 19, 30, 25.00000000000000000, #129 ) ;
#218 = MANIFOLD_SOLID_BREP ( 'Pøidat vysunutím3', #128 ) ;
#219 = CC_DESIGN_PERSON_AND_ORGANIZATION_ASSIGNMENT ( #204, #230, ( #220 ) ) ;
#220 = PRODUCT_DEFINITION_FORMATION_WITH_SPECIFIED_SOURCE ( 'LIBOVOLNÝ', '', #5, .NOT_KNOWN. ) ;
#221 = DATE_TIME_ROLE ( 'creation_date' ) ;
#222 = DATE_TIME_ROLE ( 'classification_date' ) ;
#223 = PERSON_AND_ORGANIZATION ( #214, #125 ) ;
#224 = AXIS2_PLACEMENT_3D ( 'NONE', #99, #25, #180 ) ;
#225 = AXIS2_PLACEMENT_3D ( 'NONE', #51, #190, #159 ) ;
#226 = CARTESIAN_POINT ( 'NONE',  ( 0.000000000000000000, 0.000000000000000000, 165.0000000000000000 ) ) ;
#227 = DATE_AND_TIME ( #168, #212 ) ;
#228 = APPROVAL_ROLE ( '' ) ;
#229 = FACE_OUTER_BOUND ( 'NONE', #57, .T. ) ;
#230 = PERSON_AND_ORGANIZATION_ROLE ( 'creator' ) ;
#231 = CARTESIAN_POINT ( 'NONE',  ( -4.250000000000000000, 0.000000000000000000, 5.000000000000000000 ) ) ;
#232 = ORIENTED_EDGE ( 'NONE', *, *, #86, .T. ) ;
#233 = APPROVAL_STATUS ( 'not_yet_approved' ) ;
#234 = DIRECTION ( 'NONE',  ( 0.000000000000000000, 0.000000000000000000, 1.000000000000000000 ) ) ;
#235 = EDGE_LOOP ( 'NONE', ( #195, #176, #183, #3 ) ) ;
#236 = DIRECTION ( 'NONE',  ( -0.000000000000000000, -0.000000000000000000, -1.000000000000000000 ) ) ;
#237 = FACE_OUTER_BOUND ( 'NONE', #235, .T. ) ;
#238 = ADVANCED_FACE ( 'NONE', ( #35 ), #115, .T. ) ;
#239 = ORIENTED_EDGE ( 'NONE', *, *, #205, .F. ) ;
#240 = CIRCLE ( 'NONE', #203, 4.250000000000000000 ) ;
#241 = CALENDAR_DATE ( 2022, 7, 7 ) ;
#242 = CC_DESIGN_SECURITY_CLASSIFICATION ( #143, ( #220 ) ) ;
#243 = COORDINATED_UNIVERSAL_TIME_OFFSET ( 1, 0, .AHEAD. ) ;
#244 = CYLINDRICAL_SURFACE ( 'NONE', #104, 4.250000000000000000 ) ;
#245 = COORDINATED_UNIVERSAL_TIME_OFFSET ( 1, 0, .AHEAD. ) ;
#246 = VECTOR ( 'NONE', #155, 1000.000000000000000 ) ;
#247 = DIRECTION ( 'NONE',  ( 0.000000000000000000, 0.000000000000000000, 1.000000000000000000 ) ) ;
#248 = DATE_AND_TIME ( #206, #207 ) ;
#249 = EDGE_CURVE ( 'NONE', #122, #95, #182, .T. ) ;
#250 = LOCAL_TIME ( 19, 30, 25.00000000000000000, #153 ) ;
#251 = LINE ( 'NONE', #111, #44 ) ;
#252 = DIRECTION ( 'NONE',  ( 0.000000000000000000, 0.000000000000000000, 1.000000000000000000 ) ) ;
#253 = DIRECTION ( 'NONE',  ( 1.000000000000000000, 0.000000000000000000, 0.000000000000000000 ) ) ;
#254 = FACE_OUTER_BOUND ( 'NONE', #178, .T. ) ;
#255 = FACE_OUTER_BOUND ( 'NONE', #181, .T. ) ;
ENDSEC;
END-ISO-10303-21;
