ISO-10303-21;
HEADER;
FILE_DESCRIPTION (( 'STEP AP203' ),
    '1' );
FILE_NAME ('17b4.STEP',
    '2022-07-07T17:14:08',
    ( '' ),
    ( '' ),
    'SwSTEP 2.0',
    'SolidWorks 2019',
    '' );
FILE_SCHEMA (( 'CONFIG_CONTROL_DESIGN' ));
ENDSEC;

DATA;
#1 = APPROVAL_DATE_TIME ( #91, #144 ) ;
#2 = CALENDAR_DATE ( 2022, 7, 7 ) ;
#3 = MANIFOLD_SOLID_BREP ( 'Pøidat vysunutím3', #236 ) ;
#4 = CALENDAR_DATE ( 2022, 7, 7 ) ;
#5 = ORIENTED_EDGE ( 'NONE', *, *, #164, .T. ) ;
#6 = VECTOR ( 'NONE', #15, 1000.000000000000000 ) ;
#7 = EDGE_LOOP ( 'NONE', ( #96, #76 ) ) ;
#8 = DIRECTION ( 'NONE',  ( 0.000000000000000000, 0.000000000000000000, 1.000000000000000000 ) ) ;
#9 = CYLINDRICAL_SURFACE ( 'NONE', #205, 7.000000000000000000 ) ;
#10 = EDGE_CURVE ( 'NONE', #143, #204, #11, .T. ) ;
#11 = LINE ( 'NONE', #77, #166 ) ;
#12 = ORIENTED_EDGE ( 'NONE', *, *, #45, .T. ) ;
#13 = DIRECTION ( 'NONE',  ( 0.000000000000000000, 0.000000000000000000, 1.000000000000000000 ) ) ;
#14 = CARTESIAN_POINT ( 'NONE',  ( -11.00000000000000000, 0.000000000000000000, 0.000000000000000000 ) ) ;
#15 = DIRECTION ( 'NONE',  ( -0.000000000000000000, -0.000000000000000000, -1.000000000000000000 ) ) ;
#16 = APPLICATION_PROTOCOL_DEFINITION ( 'international standard', 'config_control_design', 1994, #244 ) ;
#17 = CC_DESIGN_PERSON_AND_ORGANIZATION_ASSIGNMENT ( #241, #134, ( #71 ) ) ;
#18 = CALENDAR_DATE ( 2022, 7, 7 ) ;
#19 = PRODUCT_DEFINITION_FORMATION_WITH_SPECIFIED_SOURCE ( 'LIBOVOLNÝ', '', #123, .NOT_KNOWN. ) ;
#20 = APPROVAL_ROLE ( '' ) ;
#21 = PERSON_AND_ORGANIZATION ( #151, #223 ) ;
#22 = AXIS2_PLACEMENT_3D ( 'NONE', #102, #234, #212 ) ;
#23 = LOCAL_TIME ( 19, 14, 8.000000000000000000, #112 ) ;
#24 = DIRECTION ( 'NONE',  ( -0.000000000000000000, -0.000000000000000000, -1.000000000000000000 ) ) ;
#25 = VERTEX_POINT ( 'NONE', #29 ) ;
#26 = EDGE_LOOP ( 'NONE', ( #139, #98 ) ) ;
#27 = AXIS2_PLACEMENT_3D ( 'NONE', #238, #121, #129 ) ;
#28 = DIRECTION ( 'NONE',  ( 1.000000000000000000, 0.000000000000000000, 0.000000000000000000 ) ) ;
#29 = CARTESIAN_POINT ( 'NONE',  ( 7.000000000000000000, 8.572527594031473190E-16, 132.0000000000000000 ) ) ;
#30 = CARTESIAN_POINT ( 'NONE',  ( -7.000000000000000000, 0.000000000000000000, 7.000000000000000000 ) ) ;
#31 = CARTESIAN_POINT ( 'NONE',  ( 0.000000000000000000, 0.000000000000000000, 0.000000000000000000 ) ) ;
#32 = FACE_BOUND ( 'NONE', #26, .T. ) ;
#33 = DIRECTION ( 'NONE',  ( 0.000000000000000000, 0.000000000000000000, 1.000000000000000000 ) ) ;
#34 = APPROVAL_PERSON_ORGANIZATION ( #21, #203, #58 ) ;
#35 = DIRECTION ( 'NONE',  ( 1.000000000000000000, 0.000000000000000000, 0.000000000000000000 ) ) ;
#36 = PERSON_AND_ORGANIZATION ( #151, #223 ) ;
#37 = EDGE_CURVE ( 'NONE', #50, #124, #242, .T. ) ;
#38 = LOCAL_TIME ( 19, 14, 8.000000000000000000, #255 ) ;
#39 = PERSON_AND_ORGANIZATION ( #151, #223 ) ;
#40 = APPROVAL_DATE_TIME ( #219, #203 ) ;
#41 = ORIENTED_EDGE ( 'NONE', *, *, #141, .F. ) ;
#42 = EDGE_CURVE ( 'NONE', #25, #95, #245, .T. ) ;
#43 = DIRECTION ( 'NONE',  ( -0.000000000000000000, -0.000000000000000000, -1.000000000000000000 ) ) ;
#44 = EDGE_LOOP ( 'NONE', ( #202, #168 ) ) ;
#45 = EDGE_CURVE ( 'NONE', #222, #181, #180, .T. ) ;
#46 = CYLINDRICAL_SURFACE ( 'NONE', #80, 11.00000000000000000 ) ;
#47 = DIRECTION ( 'NONE',  ( -1.000000000000000000, 0.000000000000000000, 0.000000000000000000 ) ) ;
#48 = CARTESIAN_POINT ( 'NONE',  ( 11.00000000000000000, 1.347111479062088405E-15, 7.000000000000000000 ) ) ;
#49 = EDGE_CURVE ( 'NONE', #50, #222, #115, .T. ) ;
#50 = VERTEX_POINT ( 'NONE', #226 ) ;
#51 = LINE ( 'NONE', #48, #6 ) ;
#52 = ORIENTED_EDGE ( 'NONE', *, *, #42, .F. ) ;
#53 = CYLINDRICAL_SURFACE ( 'NONE', #118, 11.00000000000000000 ) ;
#54 = ADVANCED_FACE ( 'NONE', ( #184 ), #62, .F. ) ;
#55 = AXIS2_PLACEMENT_3D ( 'NONE', #191, #13, #169 ) ;
#56 = DATE_AND_TIME ( #4, #23 ) ;
#57 = ADVANCED_FACE ( 'NONE', ( #208 ), #46, .T. ) ;
#58 = APPROVAL_ROLE ( '' ) ;
#59 = DATE_TIME_ROLE ( 'creation_date' ) ;
#60 = DIRECTION ( 'NONE',  ( -0.000000000000000000, -0.000000000000000000, -1.000000000000000000 ) ) ;
#61 = AXIS2_PLACEMENT_3D ( 'NONE', #154, #232, #251 ) ;
#62 = PLANE ( 'NONE',  #248 ) ;
#63 = CARTESIAN_POINT ( 'NONE',  ( 7.000000000000000000, 8.572527594031473190E-16, 132.0000000000000000 ) ) ;
#64 = CC_DESIGN_PERSON_AND_ORGANIZATION_ASSIGNMENT ( #220, #216, ( #19 ) ) ;
#65 = ORIENTED_EDGE ( 'NONE', *, *, #42, .T. ) ;
#66 = ORIENTED_EDGE ( 'NONE', *, *, #213, .F. ) ;
#67 =( GEOMETRIC_REPRESENTATION_CONTEXT ( 3 ) GLOBAL_UNCERTAINTY_ASSIGNED_CONTEXT ( ( #158 ) ) GLOBAL_UNIT_ASSIGNED_CONTEXT ( ( #85, #86, #235 ) ) REPRESENTATION_CONTEXT ( 'NONE', 'WORKASPACE' ) );
#68 = CIRCLE ( 'NONE', #160, 11.00000000000000000 ) ;
#69 = LOCAL_TIME ( 19, 14, 8.000000000000000000, #174 ) ;
#70 = ORIENTED_EDGE ( 'NONE', *, *, #49, .F. ) ;
#71 = PRODUCT_DEFINITION ( 'NEZNÁMÝ', '', #19, #82 ) ;
#72 = DIRECTION ( 'NONE',  ( -1.000000000000000000, 0.000000000000000000, 0.000000000000000000 ) ) ;
#73 = SHAPE_DEFINITION_REPRESENTATION ( #206, #185 ) ;
#74 = PERSON_AND_ORGANIZATION_ROLE ( 'design_supplier' ) ;
#75 = ADVANCED_FACE ( 'NONE', ( #228 ), #9, .T. ) ;
#76 = ORIENTED_EDGE ( 'NONE', *, *, #90, .F. ) ;
#77 = CARTESIAN_POINT ( 'NONE',  ( -7.000000000000000000, 0.000000000000000000, 132.0000000000000000 ) ) ;
#78 = DIRECTION ( 'NONE',  ( 1.000000000000000000, 0.000000000000000000, 0.000000000000000000 ) ) ;
#79 = EDGE_LOOP ( 'NONE', ( #186, #127, #211, #12 ) ) ;
#80 = AXIS2_PLACEMENT_3D ( 'NONE', #119, #60, #179 ) ;
#81 = CARTESIAN_POINT ( 'NONE',  ( 0.000000000000000000, 0.000000000000000000, 7.000000000000000000 ) ) ;
#82 = DESIGN_CONTEXT ( 'detailed design', #128, 'design' ) ;
#83 = ORIENTED_EDGE ( 'NONE', *, *, #90, .T. ) ;
#84 = ORIENTED_EDGE ( 'NONE', *, *, #189, .T. ) ;
#85 =( LENGTH_UNIT ( ) NAMED_UNIT ( * ) SI_UNIT ( .MILLI., .METRE. ) );
#86 =( NAMED_UNIT ( * ) PLANE_ANGLE_UNIT ( ) SI_UNIT ( $, .RADIAN. ) );
#87 = CC_DESIGN_APPROVAL ( #144, ( #71 ) ) ;
#88 = CARTESIAN_POINT ( 'NONE',  ( -7.000000000000000000, 0.000000000000000000, 132.0000000000000000 ) ) ;
#89 = PERSON_AND_ORGANIZATION_ROLE ( 'classification_officer' ) ;
#90 = EDGE_CURVE ( 'NONE', #181, #222, #200, .T. ) ;
#91 = DATE_AND_TIME ( #18, #114 ) ;
#92 = CALENDAR_DATE ( 2022, 7, 7 ) ;
#93 = PERSON_AND_ORGANIZATION_ROLE ( 'design_owner' ) ;
#94 = CIRCLE ( 'NONE', #22, 7.000000000000000000 ) ;
#95 = VERTEX_POINT ( 'NONE', #116 ) ;
#96 = ORIENTED_EDGE ( 'NONE', *, *, #45, .F. ) ;
#97 = ORIENTED_EDGE ( 'NONE', *, *, #141, .T. ) ;
#98 = ORIENTED_EDGE ( 'NONE', *, *, #189, .F. ) ;
#99 = CARTESIAN_POINT ( 'NONE',  ( 0.000000000000000000, 0.000000000000000000, 132.0000000000000000 ) ) ;
#100 = CC_DESIGN_DATE_AND_TIME_ASSIGNMENT ( #56, #108, ( #237 ) ) ;
#101 = AXIS2_PLACEMENT_3D ( 'NONE', #150, #149, #188 ) ;
#102 = CARTESIAN_POINT ( 'NONE',  ( 0.000000000000000000, 0.000000000000000000, 132.0000000000000000 ) ) ;
#103 = CC_DESIGN_SECURITY_CLASSIFICATION ( #237, ( #19 ) ) ;
#104 = DIRECTION ( 'NONE',  ( 0.000000000000000000, 0.000000000000000000, 1.000000000000000000 ) ) ;
#105 = PLANE ( 'NONE',  #101 ) ;
#106 = CYLINDRICAL_SURFACE ( 'NONE', #131, 7.000000000000000000 ) ;
#107 = PLANE ( 'NONE',  #27 ) ;
#108 = DATE_TIME_ROLE ( 'classification_date' ) ;
#109 = CIRCLE ( 'NONE', #61, 7.000000000000000000 ) ;
#110 = COORDINATED_UNIVERSAL_TIME_OFFSET ( 1, 0, .AHEAD. ) ;
#111 = PERSON_AND_ORGANIZATION ( #151, #223 ) ;
#112 = COORDINATED_UNIVERSAL_TIME_OFFSET ( 1, 0, .AHEAD. ) ;
#113 = APPROVAL ( #198, 'NEURÈENÝ' ) ;
#114 = LOCAL_TIME ( 19, 14, 8.000000000000000000, #110 ) ;
#115 = LINE ( 'NONE', #165, #135 ) ;
#116 = CARTESIAN_POINT ( 'NONE',  ( 7.000000000000000000, 8.572527594031473190E-16, 7.000000000000000000 ) ) ;
#117 = EDGE_LOOP ( 'NONE', ( #224, #5, #83, #70 ) ) ;
#118 = AXIS2_PLACEMENT_3D ( 'NONE', #194, #230, #72 ) ;
#119 = CARTESIAN_POINT ( 'NONE',  ( 0.000000000000000000, 0.000000000000000000, 7.000000000000000000 ) ) ;
#120 = DIRECTION ( 'NONE',  ( 0.000000000000000000, 0.000000000000000000, 1.000000000000000000 ) ) ;
#121 = DIRECTION ( 'NONE',  ( 0.000000000000000000, 0.000000000000000000, 1.000000000000000000 ) ) ;
#122 = AXIS2_PLACEMENT_3D ( 'NONE', #81, #8, #78 ) ;
#123 = PRODUCT ( '17b4', '17b4', '', ( #196 ) ) ;
#124 = VERTEX_POINT ( 'NONE', #215 ) ;
#125 = CARTESIAN_POINT ( 'NONE',  ( 0.000000000000000000, 0.000000000000000000, 132.0000000000000000 ) ) ;
#126 = CC_DESIGN_DATE_AND_TIME_ASSIGNMENT ( #132, #59, ( #71 ) ) ;
#127 = ORIENTED_EDGE ( 'NONE', *, *, #37, .F. ) ;
#128 = APPLICATION_CONTEXT ( 'configuration controlled 3d designs of mechanical parts and assemblies' ) ;
#129 = DIRECTION ( 'NONE',  ( 1.000000000000000000, 0.000000000000000000, -0.000000000000000000 ) ) ;
#130 = DIRECTION ( 'NONE',  ( 0.000000000000000000, 0.000000000000000000, 1.000000000000000000 ) ) ;
#131 = AXIS2_PLACEMENT_3D ( 'NONE', #125, #190, #152 ) ;
#132 = DATE_AND_TIME ( #2, #148 ) ;
#133 = PRODUCT_RELATED_PRODUCT_CATEGORY ( 'detail', '', ( #123 ) ) ;
#134 = PERSON_AND_ORGANIZATION_ROLE ( 'creator' ) ;
#135 = VECTOR ( 'NONE', #24, 1000.000000000000000 ) ;
#136 = CALENDAR_DATE ( 2022, 7, 7 ) ;
#137 = ADVANCED_FACE ( 'NONE', ( #32, #170 ), #105, .T. ) ;
#138 = COORDINATED_UNIVERSAL_TIME_OFFSET ( 1, 0, .AHEAD. ) ;
#139 = ORIENTED_EDGE ( 'NONE', *, *, #254, .F. ) ;
#140 = CARTESIAN_POINT ( 'NONE',  ( 0.000000000000000000, 0.000000000000000000, 0.000000000000000000 ) ) ;
#141 = EDGE_CURVE ( 'NONE', #143, #25, #109, .T. ) ;
#142 = CARTESIAN_POINT ( 'NONE',  ( 0.000000000000000000, 0.000000000000000000, 0.000000000000000000 ) ) ;
#143 = VERTEX_POINT ( 'NONE', #88 ) ;
#144 = APPROVAL ( #175, 'NEURÈENÝ' ) ;
#145 = ORIENTED_EDGE ( 'NONE', *, *, #213, .T. ) ;
#146 = EDGE_LOOP ( 'NONE', ( #52, #41, #207, #227 ) ) ;
#147 = CARTESIAN_POINT ( 'NONE',  ( 11.00000000000000000, 1.347111479062088405E-15, 0.000000000000000000 ) ) ;
#148 = LOCAL_TIME ( 19, 14, 8.000000000000000000, #138 ) ;
#149 = DIRECTION ( 'NONE',  ( 0.000000000000000000, 0.000000000000000000, 1.000000000000000000 ) ) ;
#150 = CARTESIAN_POINT ( 'NONE',  ( 0.000000000000000000, 0.000000000000000000, 7.000000000000000000 ) ) ;
#151 = PERSON ( 'NEURÈENÝ', 'NEURÈENÝ', 'NEURÈENÝ', ('NEURÈENÝ'), ('NEURÈENÝ'), ('NEURÈENÝ') ) ;
#152 = DIRECTION ( 'NONE',  ( -1.000000000000000000, 0.000000000000000000, 0.000000000000000000 ) ) ;
#153 = AXIS2_PLACEMENT_3D ( 'NONE', #201, #159, #243 ) ;
#154 = CARTESIAN_POINT ( 'NONE',  ( 0.000000000000000000, 0.000000000000000000, 132.0000000000000000 ) ) ;
#155 = APPROVAL_DATE_TIME ( #195, #113 ) ;
#156 = APPROVAL_STATUS ( 'not_yet_approved' ) ;
#157 = PERSON_AND_ORGANIZATION ( #151, #223 ) ;
#158 = UNCERTAINTY_MEASURE_WITH_UNIT (LENGTH_MEASURE( 1.000000000000000082E-05 ), #85, 'distance_accuracy_value', 'NONE');
#159 = DIRECTION ( 'NONE',  ( 0.000000000000000000, 0.000000000000000000, 1.000000000000000000 ) ) ;
#160 = AXIS2_PLACEMENT_3D ( 'NONE', #214, #33, #35 ) ;
#161 = APPROVAL_PERSON_ORGANIZATION ( #111, #113, #20 ) ;
#162 = DIRECTION ( 'NONE',  ( -0.000000000000000000, -0.000000000000000000, -1.000000000000000000 ) ) ;
#163 = DIRECTION ( 'NONE',  ( -0.000000000000000000, -0.000000000000000000, -1.000000000000000000 ) ) ;
#164 = EDGE_CURVE ( 'NONE', #124, #181, #51, .T. ) ;
#165 = CARTESIAN_POINT ( 'NONE',  ( -11.00000000000000000, 0.000000000000000000, 7.000000000000000000 ) ) ;
#166 = VECTOR ( 'NONE', #162, 1000.000000000000000 ) ;
#167 = EDGE_LOOP ( 'NONE', ( #97, #145 ) ) ;
#168 = ORIENTED_EDGE ( 'NONE', *, *, #171, .T. ) ;
#169 = DIRECTION ( 'NONE',  ( 1.000000000000000000, 0.000000000000000000, 0.000000000000000000 ) ) ;
#170 = FACE_OUTER_BOUND ( 'NONE', #44, .T. ) ;
#171 = EDGE_CURVE ( 'NONE', #124, #50, #68, .T. ) ;
#172 = CARTESIAN_POINT ( 'NONE',  ( 0.000000000000000000, 0.000000000000000000, 7.000000000000000000 ) ) ;
#173 = DIRECTION ( 'NONE',  ( 1.000000000000000000, 0.000000000000000000, 0.000000000000000000 ) ) ;
#174 = COORDINATED_UNIVERSAL_TIME_OFFSET ( 1, 0, .AHEAD. ) ;
#175 = APPROVAL_STATUS ( 'not_yet_approved' ) ;
#176 = CC_DESIGN_PERSON_AND_ORGANIZATION_ASSIGNMENT ( #199, #93, ( #123 ) ) ;
#177 = SECURITY_CLASSIFICATION_LEVEL ( 'unclassified' ) ;
#178 = CC_DESIGN_APPROVAL ( #113, ( #237 ) ) ;
#179 = DIRECTION ( 'NONE',  ( -1.000000000000000000, 0.000000000000000000, 0.000000000000000000 ) ) ;
#180 = CIRCLE ( 'NONE', #218, 11.00000000000000000 ) ;
#181 = VERTEX_POINT ( 'NONE', #147 ) ;
#182 = APPROVAL_PERSON_ORGANIZATION ( #157, #144, #240 ) ;
#183 = CC_DESIGN_PERSON_AND_ORGANIZATION_ASSIGNMENT ( #36, #89, ( #237 ) ) ;
#184 = FACE_OUTER_BOUND ( 'NONE', #7, .T. ) ;
#185 = ADVANCED_BREP_SHAPE_REPRESENTATION ( '17b4', ( #3, #250 ), #67 ) ;
#186 = ORIENTED_EDGE ( 'NONE', *, *, #164, .F. ) ;
#187 = CC_DESIGN_APPROVAL ( #203, ( #19 ) ) ;
#188 = DIRECTION ( 'NONE',  ( 1.000000000000000000, 0.000000000000000000, -0.000000000000000000 ) ) ;
#189 = EDGE_CURVE ( 'NONE', #95, #204, #197, .T. ) ;
#190 = DIRECTION ( 'NONE',  ( -0.000000000000000000, -0.000000000000000000, -1.000000000000000000 ) ) ;
#191 = CARTESIAN_POINT ( 'NONE',  ( 0.000000000000000000, 0.000000000000000000, 7.000000000000000000 ) ) ;
#192 = ORIENTED_EDGE ( 'NONE', *, *, #10, .F. ) ;
#193 = ADVANCED_FACE ( 'NONE', ( #209 ), #107, .T. ) ;
#194 = CARTESIAN_POINT ( 'NONE',  ( 0.000000000000000000, 0.000000000000000000, 7.000000000000000000 ) ) ;
#195 = DATE_AND_TIME ( #92, #38 ) ;
#196 = MECHANICAL_CONTEXT ( 'NONE', #244, 'mechanical' ) ;
#197 = CIRCLE ( 'NONE', #231, 7.000000000000000000 ) ;
#198 = APPROVAL_STATUS ( 'not_yet_approved' ) ;
#199 = PERSON_AND_ORGANIZATION ( #151, #223 ) ;
#200 = CIRCLE ( 'NONE', #153, 11.00000000000000000 ) ;
#201 = CARTESIAN_POINT ( 'NONE',  ( 0.000000000000000000, 0.000000000000000000, 0.000000000000000000 ) ) ;
#202 = ORIENTED_EDGE ( 'NONE', *, *, #37, .T. ) ;
#203 = APPROVAL ( #156, 'NEURÈENÝ' ) ;
#204 = VERTEX_POINT ( 'NONE', #30 ) ;
#205 = AXIS2_PLACEMENT_3D ( 'NONE', #99, #43, #47 ) ;
#206 = PRODUCT_DEFINITION_SHAPE ( 'NONE', 'NONE',  #71 ) ;
#207 = ORIENTED_EDGE ( 'NONE', *, *, #10, .T. ) ;
#208 = FACE_OUTER_BOUND ( 'NONE', #79, .T. ) ;
#209 = FACE_OUTER_BOUND ( 'NONE', #167, .T. ) ;
#210 = EDGE_LOOP ( 'NONE', ( #66, #65, #84, #192 ) ) ;
#211 = ORIENTED_EDGE ( 'NONE', *, *, #49, .T. ) ;
#212 = DIRECTION ( 'NONE',  ( 1.000000000000000000, 0.000000000000000000, 0.000000000000000000 ) ) ;
#213 = EDGE_CURVE ( 'NONE', #25, #143, #94, .T. ) ;
#214 = CARTESIAN_POINT ( 'NONE',  ( 0.000000000000000000, 0.000000000000000000, 7.000000000000000000 ) ) ;
#215 = CARTESIAN_POINT ( 'NONE',  ( 11.00000000000000000, 1.347111479062088405E-15, 7.000000000000000000 ) ) ;
#216 = PERSON_AND_ORGANIZATION_ROLE ( 'creator' ) ;
#217 = DIRECTION ( 'NONE',  ( 1.000000000000000000, 0.000000000000000000, 0.000000000000000000 ) ) ;
#218 = AXIS2_PLACEMENT_3D ( 'NONE', #142, #120, #28 ) ;
#219 = DATE_AND_TIME ( #136, #69 ) ;
#220 = PERSON_AND_ORGANIZATION ( #151, #223 ) ;
#221 = ADVANCED_FACE ( 'NONE', ( #253 ), #53, .T. ) ;
#222 = VERTEX_POINT ( 'NONE', #14 ) ;
#223 = ORGANIZATION ( 'NEURÈENÝ', 'NEURÈENÝ', '' ) ;
#224 = ORIENTED_EDGE ( 'NONE', *, *, #171, .F. ) ;
#225 = ADVANCED_FACE ( 'NONE', ( #252 ), #106, .T. ) ;
#226 = CARTESIAN_POINT ( 'NONE',  ( -11.00000000000000000, 0.000000000000000000, 7.000000000000000000 ) ) ;
#227 = ORIENTED_EDGE ( 'NONE', *, *, #254, .T. ) ;
#228 = FACE_OUTER_BOUND ( 'NONE', #146, .T. ) ;
#229 = VECTOR ( 'NONE', #163, 1000.000000000000000 ) ;
#230 = DIRECTION ( 'NONE',  ( -0.000000000000000000, -0.000000000000000000, -1.000000000000000000 ) ) ;
#231 = AXIS2_PLACEMENT_3D ( 'NONE', #172, #130, #173 ) ;
#232 = DIRECTION ( 'NONE',  ( 0.000000000000000000, 0.000000000000000000, 1.000000000000000000 ) ) ;
#233 = CC_DESIGN_PERSON_AND_ORGANIZATION_ASSIGNMENT ( #39, #74, ( #19 ) ) ;
#234 = DIRECTION ( 'NONE',  ( 0.000000000000000000, 0.000000000000000000, 1.000000000000000000 ) ) ;
#235 =( NAMED_UNIT ( * ) SI_UNIT ( $, .STERADIAN. ) SOLID_ANGLE_UNIT ( ) );
#236 = CLOSED_SHELL ( 'NONE', ( #225, #221, #57, #137, #54, #75, #193 ) ) ;
#237 = SECURITY_CLASSIFICATION ( '', '', #177 ) ;
#238 = CARTESIAN_POINT ( 'NONE',  ( 0.000000000000000000, 0.000000000000000000, 132.0000000000000000 ) ) ;
#239 = APPLICATION_PROTOCOL_DEFINITION ( 'international standard', 'config_control_design', 1994, #128 ) ;
#240 = APPROVAL_ROLE ( '' ) ;
#241 = PERSON_AND_ORGANIZATION ( #151, #223 ) ;
#242 = CIRCLE ( 'NONE', #122, 11.00000000000000000 ) ;
#243 = DIRECTION ( 'NONE',  ( 1.000000000000000000, 0.000000000000000000, 0.000000000000000000 ) ) ;
#244 = APPLICATION_CONTEXT ( 'configuration controlled 3d designs of mechanical parts and assemblies' ) ;
#245 = LINE ( 'NONE', #63, #229 ) ;
#246 = DIRECTION ( 'NONE',  ( 0.000000000000000000, 0.000000000000000000, 1.000000000000000000 ) ) ;
#247 = DIRECTION ( 'NONE',  ( 1.000000000000000000, 0.000000000000000000, -0.000000000000000000 ) ) ;
#248 = AXIS2_PLACEMENT_3D ( 'NONE', #140, #246, #247 ) ;
#249 = CIRCLE ( 'NONE', #55, 7.000000000000000000 ) ;
#250 = AXIS2_PLACEMENT_3D ( 'NONE', #31, #104, #217 ) ;
#251 = DIRECTION ( 'NONE',  ( 1.000000000000000000, 0.000000000000000000, 0.000000000000000000 ) ) ;
#252 = FACE_OUTER_BOUND ( 'NONE', #210, .T. ) ;
#253 = FACE_OUTER_BOUND ( 'NONE', #117, .T. ) ;
#254 = EDGE_CURVE ( 'NONE', #204, #95, #249, .T. ) ;
#255 = COORDINATED_UNIVERSAL_TIME_OFFSET ( 1, 0, .AHEAD. ) ;
ENDSEC;
END-ISO-10303-21;
