ISO-10303-21;
HEADER;
FILE_DESCRIPTION (( 'STEP AP203' ),
    '1' );
FILE_NAME ('5bee.STEP',
    '2022-07-07T17:32:25',
    ( '' ),
    ( '' ),
    'SwSTEP 2.0',
    'SolidWorks 2019',
    '' );
FILE_SCHEMA (( 'CONFIG_CONTROL_DESIGN' ));
ENDSEC;

DATA;
#1 = CIRCLE ( 'NONE', #178, 4.099999999999999645 ) ;
#2 = PERSON_AND_ORGANIZATION ( #126, #32 ) ;
#3 = DIRECTION ( 'NONE',  ( -0.000000000000000000, -0.000000000000000000, -1.000000000000000000 ) ) ;
#4 = APPROVAL_STATUS ( 'not_yet_approved' ) ;
#5 = APPROVAL_PERSON_ORGANIZATION ( #2, #65, #221 ) ;
#6 = ORIENTED_EDGE ( 'NONE', *, *, #152, .T. ) ;
#7 =( NAMED_UNIT ( * ) SI_UNIT ( $, .STERADIAN. ) SOLID_ANGLE_UNIT ( ) );
#8 = COORDINATED_UNIVERSAL_TIME_OFFSET ( 1, 0, .AHEAD. ) ;
#9 = ORIENTED_EDGE ( 'NONE', *, *, #170, .T. ) ;
#10 = DIRECTION ( 'NONE',  ( -1.000000000000000000, 0.000000000000000000, 0.000000000000000000 ) ) ;
#11 = CC_DESIGN_PERSON_AND_ORGANIZATION_ASSIGNMENT ( #161, #63, ( #55 ) ) ;
#12 = CIRCLE ( 'NONE', #14, 4.099999999999999645 ) ;
#13 = PLANE ( 'NONE',  #146 ) ;
#14 = AXIS2_PLACEMENT_3D ( 'NONE', #43, #62, #199 ) ;
#15 = EDGE_CURVE ( 'NONE', #240, #128, #194, .T. ) ;
#16 = CARTESIAN_POINT ( 'NONE',  ( -4.099999999999999645, 0.000000000000000000, 5.000000000000000000 ) ) ;
#17 = CARTESIAN_POINT ( 'NONE',  ( -7.000000000000000000, 0.000000000000000000, 0.000000000000000000 ) ) ;
#18 =( GEOMETRIC_REPRESENTATION_CONTEXT ( 3 ) GLOBAL_UNCERTAINTY_ASSIGNED_CONTEXT ( ( #168 ) ) GLOBAL_UNIT_ASSIGNED_CONTEXT ( ( #197, #38, #7 ) ) REPRESENTATION_CONTEXT ( 'NONE', 'WORKASPACE' ) );
#19 = DIRECTION ( 'NONE',  ( 0.000000000000000000, 0.000000000000000000, 1.000000000000000000 ) ) ;
#20 = PRODUCT_DEFINITION ( 'NEZNÁMÝ', '', #184, #93 ) ;
#21 = DIRECTION ( 'NONE',  ( 1.000000000000000000, 0.000000000000000000, 0.000000000000000000 ) ) ;
#22 = EDGE_CURVE ( 'NONE', #240, #23, #26, .T. ) ;
#23 = VERTEX_POINT ( 'NONE', #220 ) ;
#24 = PERSON_AND_ORGANIZATION ( #126, #32 ) ;
#25 = ORIENTED_EDGE ( 'NONE', *, *, #30, .T. ) ;
#26 = LINE ( 'NONE', #179, #48 ) ;
#27 = APPROVAL_ROLE ( '' ) ;
#28 = ORIENTED_EDGE ( 'NONE', *, *, #94, .T. ) ;
#29 = ORIENTED_EDGE ( 'NONE', *, *, #238, .F. ) ;
#30 = EDGE_CURVE ( 'NONE', #174, #23, #12, .T. ) ;
#31 = CARTESIAN_POINT ( 'NONE',  ( 0.000000000000000000, 0.000000000000000000, 5.000000000000000000 ) ) ;
#32 = ORGANIZATION ( 'NEURÈENÝ', 'NEURÈENÝ', '' ) ;
#33 = CARTESIAN_POINT ( 'NONE',  ( 0.000000000000000000, 0.000000000000000000, 105.0000000000000142 ) ) ;
#34 = APPROVAL ( #51, 'NEURÈENÝ' ) ;
#35 = DIRECTION ( 'NONE',  ( 0.000000000000000000, 0.000000000000000000, 1.000000000000000000 ) ) ;
#36 = DIRECTION ( 'NONE',  ( -0.000000000000000000, -0.000000000000000000, -1.000000000000000000 ) ) ;
#37 = AXIS2_PLACEMENT_3D ( 'NONE', #104, #245, #21 ) ;
#38 =( NAMED_UNIT ( * ) PLANE_ANGLE_UNIT ( ) SI_UNIT ( $, .RADIAN. ) );
#39 = VERTEX_POINT ( 'NONE', #244 ) ;
#40 = APPROVAL_STATUS ( 'not_yet_approved' ) ;
#41 = EDGE_LOOP ( 'NONE', ( #182, #81, #6, #85 ) ) ;
#42 = APPLICATION_PROTOCOL_DEFINITION ( 'international standard', 'config_control_design', 1994, #138 ) ;
#43 = CARTESIAN_POINT ( 'NONE',  ( 0.000000000000000000, 0.000000000000000000, 5.000000000000000000 ) ) ;
#44 = CIRCLE ( 'NONE', #77, 4.099999999999999645 ) ;
#45 = CC_DESIGN_APPROVAL ( #65, ( #20 ) ) ;
#46 = ORIENTED_EDGE ( 'NONE', *, *, #30, .F. ) ;
#47 = SHAPE_DEFINITION_REPRESENTATION ( #212, #232 ) ;
#48 = VECTOR ( 'NONE', #3, 1000.000000000000000 ) ;
#49 = CARTESIAN_POINT ( 'NONE',  ( 7.000000000000000000, 8.572527594031473190E-16, 0.000000000000000000 ) ) ;
#50 = CC_DESIGN_PERSON_AND_ORGANIZATION_ASSIGNMENT ( #200, #180, ( #20 ) ) ;
#51 = APPROVAL_STATUS ( 'not_yet_approved' ) ;
#52 = DATE_AND_TIME ( #169, #214 ) ;
#53 = CARTESIAN_POINT ( 'NONE',  ( 4.099999999999999645, 5.021051876504147385E-16, 105.0000000000000142 ) ) ;
#54 = CARTESIAN_POINT ( 'NONE',  ( 0.000000000000000000, 0.000000000000000000, 0.000000000000000000 ) ) ;
#55 = SECURITY_CLASSIFICATION ( '', '', #82 ) ;
#56 = DIRECTION ( 'NONE',  ( -0.000000000000000000, -0.000000000000000000, -1.000000000000000000 ) ) ;
#57 = FACE_OUTER_BOUND ( 'NONE', #73, .T. ) ;
#58 = CC_DESIGN_PERSON_AND_ORGANIZATION_ASSIGNMENT ( #24, #213, ( #184 ) ) ;
#59 = CALENDAR_DATE ( 2022, 7, 7 ) ;
#60 = APPROVAL_PERSON_ORGANIZATION ( #204, #34, #230 ) ;
#61 = DATE_AND_TIME ( #107, #248 ) ;
#62 = DIRECTION ( 'NONE',  ( 0.000000000000000000, 0.000000000000000000, 1.000000000000000000 ) ) ;
#63 = PERSON_AND_ORGANIZATION_ROLE ( 'classification_officer' ) ;
#64 = ORIENTED_EDGE ( 'NONE', *, *, #69, .F. ) ;
#65 = APPROVAL ( #4, 'NEURÈENÝ' ) ;
#66 = CARTESIAN_POINT ( 'NONE',  ( 0.000000000000000000, 0.000000000000000000, 0.000000000000000000 ) ) ;
#67 = MECHANICAL_CONTEXT ( 'NONE', #135, 'mechanical' ) ;
#68 = FACE_OUTER_BOUND ( 'NONE', #246, .T. ) ;
#69 = EDGE_CURVE ( 'NONE', #160, #108, #189, .T. ) ;
#70 = CALENDAR_DATE ( 2022, 7, 7 ) ;
#71 = DIRECTION ( 'NONE',  ( 1.000000000000000000, 0.000000000000000000, 0.000000000000000000 ) ) ;
#72 = DIRECTION ( 'NONE',  ( -0.000000000000000000, -0.000000000000000000, -1.000000000000000000 ) ) ;
#73 = EDGE_LOOP ( 'NONE', ( #9, #202 ) ) ;
#74 = FACE_OUTER_BOUND ( 'NONE', #195, .T. ) ;
#75 = FACE_OUTER_BOUND ( 'NONE', #171, .T. ) ;
#76 = CYLINDRICAL_SURFACE ( 'NONE', #98, 4.099999999999999645 ) ;
#77 = AXIS2_PLACEMENT_3D ( 'NONE', #233, #35, #251 ) ;
#78 = AXIS2_PLACEMENT_3D ( 'NONE', #66, #222, #166 ) ;
#79 = ADVANCED_FACE ( 'NONE', ( #68 ), #127, .T. ) ;
#80 = COORDINATED_UNIVERSAL_TIME_OFFSET ( 1, 0, .AHEAD. ) ;
#81 = ORIENTED_EDGE ( 'NONE', *, *, #170, .F. ) ;
#82 = SECURITY_CLASSIFICATION_LEVEL ( 'unclassified' ) ;
#83 = EDGE_LOOP ( 'NONE', ( #46, #145 ) ) ;
#84 = PERSON_AND_ORGANIZATION ( #126, #32 ) ;
#85 = ORIENTED_EDGE ( 'NONE', *, *, #69, .T. ) ;
#86 = ORIENTED_EDGE ( 'NONE', *, *, #152, .F. ) ;
#87 = CARTESIAN_POINT ( 'NONE',  ( 0.000000000000000000, 0.000000000000000000, 0.000000000000000000 ) ) ;
#88 = CIRCLE ( 'NONE', #167, 7.000000000000000000 ) ;
#89 = CC_DESIGN_PERSON_AND_ORGANIZATION_ASSIGNMENT ( #139, #121, ( #184 ) ) ;
#90 = AXIS2_PLACEMENT_3D ( 'NONE', #31, #252, #92 ) ;
#91 = CLOSED_SHELL ( 'NONE', ( #159, #79, #129, #209, #198, #235, #203 ) ) ;
#92 = DIRECTION ( 'NONE',  ( -1.000000000000000000, 0.000000000000000000, 0.000000000000000000 ) ) ;
#93 = DESIGN_CONTEXT ( 'detailed design', #138, 'design' ) ;
#94 = EDGE_CURVE ( 'NONE', #108, #160, #116, .T. ) ;
#95 = CARTESIAN_POINT ( 'NONE',  ( -4.099999999999999645, 0.000000000000000000, 105.0000000000000142 ) ) ;
#96 = CARTESIAN_POINT ( 'NONE',  ( 0.000000000000000000, 0.000000000000000000, 5.000000000000000000 ) ) ;
#97 = DIRECTION ( 'NONE',  ( 0.000000000000000000, 0.000000000000000000, 1.000000000000000000 ) ) ;
#98 = AXIS2_PLACEMENT_3D ( 'NONE', #190, #36, #191 ) ;
#99 = LINE ( 'NONE', #173, #119 ) ;
#100 = AXIS2_PLACEMENT_3D ( 'NONE', #231, #137, #210 ) ;
#101 = VECTOR ( 'NONE', #193, 1000.000000000000000 ) ;
#102 = APPLICATION_PROTOCOL_DEFINITION ( 'international standard', 'config_control_design', 1994, #135 ) ;
#103 = DIRECTION ( 'NONE',  ( 0.000000000000000000, 0.000000000000000000, 1.000000000000000000 ) ) ;
#104 = CARTESIAN_POINT ( 'NONE',  ( 0.000000000000000000, 0.000000000000000000, 0.000000000000000000 ) ) ;
#105 = APPROVAL ( #40, 'NEURÈENÝ' ) ;
#106 = ORIENTED_EDGE ( 'NONE', *, *, #241, .T. ) ;
#107 = CALENDAR_DATE ( 2022, 7, 7 ) ;
#108 = VERTEX_POINT ( 'NONE', #49 ) ;
#109 = CIRCLE ( 'NONE', #237, 7.000000000000000000 ) ;
#110 = CARTESIAN_POINT ( 'NONE',  ( 0.000000000000000000, 0.000000000000000000, 5.000000000000000000 ) ) ;
#111 = CC_DESIGN_SECURITY_CLASSIFICATION ( #55, ( #184 ) ) ;
#112 = AXIS2_PLACEMENT_3D ( 'NONE', #87, #247, #151 ) ;
#113 = AXIS2_PLACEMENT_3D ( 'NONE', #54, #117, #133 ) ;
#114 = DIRECTION ( 'NONE',  ( 1.000000000000000000, 0.000000000000000000, 0.000000000000000000 ) ) ;
#115 = FACE_OUTER_BOUND ( 'NONE', #163, .T. ) ;
#116 = CIRCLE ( 'NONE', #112, 7.000000000000000000 ) ;
#117 = DIRECTION ( 'NONE',  ( 0.000000000000000000, 0.000000000000000000, 1.000000000000000000 ) ) ;
#118 = CARTESIAN_POINT ( 'NONE',  ( 7.000000000000000000, 8.572527594031473190E-16, 5.000000000000000000 ) ) ;
#119 = VECTOR ( 'NONE', #176, 1000.000000000000000 ) ;
#120 = ORIENTED_EDGE ( 'NONE', *, *, #185, .F. ) ;
#121 = PERSON_AND_ORGANIZATION_ROLE ( 'creator' ) ;
#122 = ORIENTED_EDGE ( 'NONE', *, *, #94, .F. ) ;
#123 = DATE_AND_TIME ( #59, #229 ) ;
#124 = ORIENTED_EDGE ( 'NONE', *, *, #15, .T. ) ;
#125 = APPROVAL_DATE_TIME ( #123, #65 ) ;
#126 = PERSON ( 'NEURÈENÝ', 'NEURÈENÝ', 'NEURÈENÝ', ('NEURÈENÝ'), ('NEURÈENÝ'), ('NEURÈENÝ') ) ;
#127 = CYLINDRICAL_SURFACE ( 'NONE', #227, 7.000000000000000000 ) ;
#128 = VERTEX_POINT ( 'NONE', #172 ) ;
#129 = ADVANCED_FACE ( 'NONE', ( #154 ), #208, .T. ) ;
#130 = CC_DESIGN_APPROVAL ( #34, ( #55 ) ) ;
#131 = COORDINATED_UNIVERSAL_TIME_OFFSET ( 1, 0, .AHEAD. ) ;
#132 = LINE ( 'NONE', #206, #101 ) ;
#133 = DIRECTION ( 'NONE',  ( 1.000000000000000000, 0.000000000000000000, -0.000000000000000000 ) ) ;
#134 = EDGE_CURVE ( 'NONE', #23, #174, #1, .T. ) ;
#135 = APPLICATION_CONTEXT ( 'configuration controlled 3d designs of mechanical parts and assemblies' ) ;
#136 = FACE_OUTER_BOUND ( 'NONE', #196, .T. ) ;
#137 = DIRECTION ( 'NONE',  ( 0.000000000000000000, 0.000000000000000000, 1.000000000000000000 ) ) ;
#138 = APPLICATION_CONTEXT ( 'configuration controlled 3d designs of mechanical parts and assemblies' ) ;
#139 = PERSON_AND_ORGANIZATION ( #126, #32 ) ;
#140 = DATE_TIME_ROLE ( 'creation_date' ) ;
#141 = ORIENTED_EDGE ( 'NONE', *, *, #134, .T. ) ;
#142 = CARTESIAN_POINT ( 'NONE',  ( 0.000000000000000000, 0.000000000000000000, 105.0000000000000142 ) ) ;
#143 = PERSON_AND_ORGANIZATION ( #126, #32 ) ;
#144 = PRODUCT ( '5bee', '5bee', '', ( #67 ) ) ;
#145 = ORIENTED_EDGE ( 'NONE', *, *, #134, .F. ) ;
#146 = AXIS2_PLACEMENT_3D ( 'NONE', #192, #97, #207 ) ;
#147 = LOCAL_TIME ( 19, 32, 25.00000000000000000, #8 ) ;
#148 = APPROVAL_DATE_TIME ( #223, #105 ) ;
#149 = DATE_TIME_ROLE ( 'classification_date' ) ;
#150 = CC_DESIGN_DATE_AND_TIME_ASSIGNMENT ( #61, #140, ( #20 ) ) ;
#151 = DIRECTION ( 'NONE',  ( 1.000000000000000000, 0.000000000000000000, 0.000000000000000000 ) ) ;
#152 = EDGE_CURVE ( 'NONE', #39, #160, #99, .T. ) ;
#153 = PLANE ( 'NONE',  #113 ) ;
#154 = FACE_OUTER_BOUND ( 'NONE', #41, .T. ) ;
#155 = PLANE ( 'NONE',  #100 ) ;
#156 = VECTOR ( 'NONE', #56, 1000.000000000000000 ) ;
#157 = CYLINDRICAL_SURFACE ( 'NONE', #249, 4.099999999999999645 ) ;
#158 = EDGE_CURVE ( 'NONE', #128, #174, #177, .T. ) ;
#159 = ADVANCED_FACE ( 'NONE', ( #136 ), #157, .T. ) ;
#160 = VERTEX_POINT ( 'NONE', #17 ) ;
#161 = PERSON_AND_ORGANIZATION ( #126, #32 ) ;
#162 = ORIENTED_EDGE ( 'NONE', *, *, #22, .T. ) ;
#163 = EDGE_LOOP ( 'NONE', ( #201, #120, #225, #25 ) ) ;
#164 = CALENDAR_DATE ( 2022, 7, 7 ) ;
#165 = ORIENTED_EDGE ( 'NONE', *, *, #158, .F. ) ;
#166 = DIRECTION ( 'NONE',  ( 1.000000000000000000, 0.000000000000000000, 0.000000000000000000 ) ) ;
#167 = AXIS2_PLACEMENT_3D ( 'NONE', #96, #19, #255 ) ;
#168 = UNCERTAINTY_MEASURE_WITH_UNIT (LENGTH_MEASURE( 1.000000000000000082E-05 ), #197, 'distance_accuracy_value', 'NONE');
#169 = CALENDAR_DATE ( 2022, 7, 7 ) ;
#170 = EDGE_CURVE ( 'NONE', #39, #226, #109, .T. ) ;
#171 = EDGE_LOOP ( 'NONE', ( #64, #122 ) ) ;
#172 = CARTESIAN_POINT ( 'NONE',  ( -4.099999999999999645, 0.000000000000000000, 105.0000000000000142 ) ) ;
#173 = CARTESIAN_POINT ( 'NONE',  ( -7.000000000000000000, 0.000000000000000000, 5.000000000000000000 ) ) ;
#174 = VERTEX_POINT ( 'NONE', #16 ) ;
#175 = DIRECTION ( 'NONE',  ( 0.000000000000000000, 0.000000000000000000, 1.000000000000000000 ) ) ;
#176 = DIRECTION ( 'NONE',  ( -0.000000000000000000, -0.000000000000000000, -1.000000000000000000 ) ) ;
#177 = LINE ( 'NONE', #95, #156 ) ;
#178 = AXIS2_PLACEMENT_3D ( 'NONE', #234, #250, #114 ) ;
#179 = CARTESIAN_POINT ( 'NONE',  ( 4.099999999999999645, 5.021051876504147385E-16, 105.0000000000000142 ) ) ;
#180 = PERSON_AND_ORGANIZATION_ROLE ( 'creator' ) ;
#181 = DIRECTION ( 'NONE',  ( 1.000000000000000000, 0.000000000000000000, 0.000000000000000000 ) ) ;
#182 = ORIENTED_EDGE ( 'NONE', *, *, #241, .F. ) ;
#183 = DIRECTION ( 'NONE',  ( -0.000000000000000000, -0.000000000000000000, -1.000000000000000000 ) ) ;
#184 = PRODUCT_DEFINITION_FORMATION_WITH_SPECIFIED_SOURCE ( 'LIBOVOLNÝ', '', #144, .NOT_KNOWN. ) ;
#185 = EDGE_CURVE ( 'NONE', #128, #240, #44, .T. ) ;
#186 = APPROVAL_PERSON_ORGANIZATION ( #84, #105, #27 ) ;
#187 = CARTESIAN_POINT ( 'NONE',  ( 0.000000000000000000, 0.000000000000000000, 5.000000000000000000 ) ) ;
#188 = PRODUCT_RELATED_PRODUCT_CATEGORY ( 'detail', '', ( #144 ) ) ;
#189 = CIRCLE ( 'NONE', #78, 7.000000000000000000 ) ;
#190 = CARTESIAN_POINT ( 'NONE',  ( 0.000000000000000000, 0.000000000000000000, 105.0000000000000142 ) ) ;
#191 = DIRECTION ( 'NONE',  ( -1.000000000000000000, 0.000000000000000000, 0.000000000000000000 ) ) ;
#192 = CARTESIAN_POINT ( 'NONE',  ( 0.000000000000000000, 0.000000000000000000, 105.0000000000000142 ) ) ;
#193 = DIRECTION ( 'NONE',  ( -0.000000000000000000, -0.000000000000000000, -1.000000000000000000 ) ) ;
#194 = CIRCLE ( 'NONE', #217, 4.099999999999999645 ) ;
#195 = EDGE_LOOP ( 'NONE', ( #216, #124 ) ) ;
#196 = EDGE_LOOP ( 'NONE', ( #243, #162, #141, #165 ) ) ;
#197 =( LENGTH_UNIT ( ) NAMED_UNIT ( * ) SI_UNIT ( .MILLI., .METRE. ) );
#198 = ADVANCED_FACE ( 'NONE', ( #75 ), #153, .F. ) ;
#199 = DIRECTION ( 'NONE',  ( 1.000000000000000000, 0.000000000000000000, 0.000000000000000000 ) ) ;
#200 = PERSON_AND_ORGANIZATION ( #126, #32 ) ;
#201 = ORIENTED_EDGE ( 'NONE', *, *, #22, .F. ) ;
#202 = ORIENTED_EDGE ( 'NONE', *, *, #238, .T. ) ;
#203 = ADVANCED_FACE ( 'NONE', ( #74 ), #13, .T. ) ;
#204 = PERSON_AND_ORGANIZATION ( #126, #32 ) ;
#205 = CC_DESIGN_APPROVAL ( #105, ( #184 ) ) ;
#206 = CARTESIAN_POINT ( 'NONE',  ( 7.000000000000000000, 8.572527594031473190E-16, 5.000000000000000000 ) ) ;
#207 = DIRECTION ( 'NONE',  ( 1.000000000000000000, 0.000000000000000000, -0.000000000000000000 ) ) ;
#208 = CYLINDRICAL_SURFACE ( 'NONE', #90, 7.000000000000000000 ) ;
#209 = ADVANCED_FACE ( 'NONE', ( #236, #57 ), #155, .T. ) ;
#210 = DIRECTION ( 'NONE',  ( 1.000000000000000000, 0.000000000000000000, -0.000000000000000000 ) ) ;
#211 = MANIFOLD_SOLID_BREP ( 'Pøidat vysunutím3', #91 ) ;
#212 = PRODUCT_DEFINITION_SHAPE ( 'NONE', 'NONE',  #20 ) ;
#213 = PERSON_AND_ORGANIZATION_ROLE ( 'design_supplier' ) ;
#214 = LOCAL_TIME ( 19, 32, 25.00000000000000000, #242 ) ;
#215 = COORDINATED_UNIVERSAL_TIME_OFFSET ( 1, 0, .AHEAD. ) ;
#216 = ORIENTED_EDGE ( 'NONE', *, *, #185, .T. ) ;
#217 = AXIS2_PLACEMENT_3D ( 'NONE', #142, #103, #181 ) ;
#218 = PERSON_AND_ORGANIZATION_ROLE ( 'design_owner' ) ;
#219 = CC_DESIGN_DATE_AND_TIME_ASSIGNMENT ( #52, #149, ( #55 ) ) ;
#220 = CARTESIAN_POINT ( 'NONE',  ( 4.099999999999999645, 5.021051876504147385E-16, 5.000000000000000000 ) ) ;
#221 = APPROVAL_ROLE ( '' ) ;
#222 = DIRECTION ( 'NONE',  ( 0.000000000000000000, 0.000000000000000000, 1.000000000000000000 ) ) ;
#223 = DATE_AND_TIME ( #164, #147 ) ;
#224 = DATE_AND_TIME ( #70, #239 ) ;
#225 = ORIENTED_EDGE ( 'NONE', *, *, #158, .T. ) ;
#226 = VERTEX_POINT ( 'NONE', #118 ) ;
#227 = AXIS2_PLACEMENT_3D ( 'NONE', #110, #183, #10 ) ;
#228 = APPROVAL_DATE_TIME ( #224, #34 ) ;
#229 = LOCAL_TIME ( 19, 32, 25.00000000000000000, #215 ) ;
#230 = APPROVAL_ROLE ( '' ) ;
#231 = CARTESIAN_POINT ( 'NONE',  ( 0.000000000000000000, 0.000000000000000000, 5.000000000000000000 ) ) ;
#232 = ADVANCED_BREP_SHAPE_REPRESENTATION ( '5bee', ( #211, #37 ), #18 ) ;
#233 = CARTESIAN_POINT ( 'NONE',  ( 0.000000000000000000, 0.000000000000000000, 105.0000000000000142 ) ) ;
#234 = CARTESIAN_POINT ( 'NONE',  ( 0.000000000000000000, 0.000000000000000000, 5.000000000000000000 ) ) ;
#235 = ADVANCED_FACE ( 'NONE', ( #115 ), #76, .T. ) ;
#236 = FACE_BOUND ( 'NONE', #83, .T. ) ;
#237 = AXIS2_PLACEMENT_3D ( 'NONE', #187, #175, #71 ) ;
#238 = EDGE_CURVE ( 'NONE', #226, #39, #88, .T. ) ;
#239 = LOCAL_TIME ( 19, 32, 25.00000000000000000, #131 ) ;
#240 = VERTEX_POINT ( 'NONE', #53 ) ;
#241 = EDGE_CURVE ( 'NONE', #226, #108, #132, .T. ) ;
#242 = COORDINATED_UNIVERSAL_TIME_OFFSET ( 1, 0, .AHEAD. ) ;
#243 = ORIENTED_EDGE ( 'NONE', *, *, #15, .F. ) ;
#244 = CARTESIAN_POINT ( 'NONE',  ( -7.000000000000000000, 0.000000000000000000, 5.000000000000000000 ) ) ;
#245 = DIRECTION ( 'NONE',  ( 0.000000000000000000, 0.000000000000000000, 1.000000000000000000 ) ) ;
#246 = EDGE_LOOP ( 'NONE', ( #29, #106, #28, #86 ) ) ;
#247 = DIRECTION ( 'NONE',  ( 0.000000000000000000, 0.000000000000000000, 1.000000000000000000 ) ) ;
#248 = LOCAL_TIME ( 19, 32, 25.00000000000000000, #80 ) ;
#249 = AXIS2_PLACEMENT_3D ( 'NONE', #33, #72, #254 ) ;
#250 = DIRECTION ( 'NONE',  ( 0.000000000000000000, 0.000000000000000000, 1.000000000000000000 ) ) ;
#251 = DIRECTION ( 'NONE',  ( 1.000000000000000000, 0.000000000000000000, 0.000000000000000000 ) ) ;
#252 = DIRECTION ( 'NONE',  ( -0.000000000000000000, -0.000000000000000000, -1.000000000000000000 ) ) ;
#253 = CC_DESIGN_PERSON_AND_ORGANIZATION_ASSIGNMENT ( #143, #218, ( #144 ) ) ;
#254 = DIRECTION ( 'NONE',  ( -1.000000000000000000, 0.000000000000000000, 0.000000000000000000 ) ) ;
#255 = DIRECTION ( 'NONE',  ( 1.000000000000000000, 0.000000000000000000, 0.000000000000000000 ) ) ;
ENDSEC;
END-ISO-10303-21;
