ISO-10303-21;
HEADER;
FILE_DESCRIPTION (( 'STEP AP203' ),
    '1' );
FILE_NAME ('f236.STEP',
    '2022-07-07T17:16:21',
    ( '' ),
    ( '' ),
    'SwSTEP 2.0',
    'SolidWorks 2019',
    '' );
FILE_SCHEMA (( 'CONFIG_CONTROL_DESIGN' ));
ENDSEC;

DATA;
#1 = ORIENTED_EDGE ( 'NONE', *, *, #130, .T. ) ;
#2 = CIRCLE ( 'NONE', #227, 6.500000000000000888 ) ;
#3 = DIRECTION ( 'NONE',  ( 1.000000000000000000, 0.000000000000000000, 0.000000000000000000 ) ) ;
#4 = APPROVAL_PERSON_ORGANIZATION ( #114, #83, #211 ) ;
#5 = ORIENTED_EDGE ( 'NONE', *, *, #12, .F. ) ;
#6 = DIRECTION ( 'NONE',  ( 1.000000000000000000, 0.000000000000000000, 0.000000000000000000 ) ) ;
#7 = DIRECTION ( 'NONE',  ( -0.000000000000000000, -0.000000000000000000, -1.000000000000000000 ) ) ;
#8 = EDGE_LOOP ( 'NONE', ( #215, #196 ) ) ;
#9 = AXIS2_PLACEMENT_3D ( 'NONE', #81, #234, #129 ) ;
#10 = EDGE_LOOP ( 'NONE', ( #5, #144, #250, #184 ) ) ;
#11 = FACE_OUTER_BOUND ( 'NONE', #185, .T. ) ;
#12 = EDGE_CURVE ( 'NONE', #59, #197, #58, .T. ) ;
#13 = DIRECTION ( 'NONE',  ( -0.000000000000000000, -0.000000000000000000, -1.000000000000000000 ) ) ;
#14 = SHAPE_DEFINITION_REPRESENTATION ( #132, #201 ) ;
#15 = AXIS2_PLACEMENT_3D ( 'NONE', #148, #49, #86 ) ;
#16 = DIRECTION ( 'NONE',  ( 1.000000000000000000, 0.000000000000000000, 0.000000000000000000 ) ) ;
#17 = PERSON ( 'NEURÈENÝ', 'NEURÈENÝ', 'NEURÈENÝ', ('NEURÈENÝ'), ('NEURÈENÝ'), ('NEURÈENÝ') ) ;
#18 = CALENDAR_DATE ( 2022, 7, 7 ) ;
#19 = VECTOR ( 'NONE', #7, 1000.000000000000000 ) ;
#20 = SECURITY_CLASSIFICATION_LEVEL ( 'unclassified' ) ;
#21 = VERTEX_POINT ( 'NONE', #179 ) ;
#22 = DIRECTION ( 'NONE',  ( 0.000000000000000000, 0.000000000000000000, 1.000000000000000000 ) ) ;
#23 = AXIS2_PLACEMENT_3D ( 'NONE', #82, #77, #219 ) ;
#24 = DIRECTION ( 'NONE',  ( 1.000000000000000000, 0.000000000000000000, 0.000000000000000000 ) ) ;
#25 = EDGE_CURVE ( 'NONE', #183, #21, #110, .T. ) ;
#26 = CARTESIAN_POINT ( 'NONE',  ( 11.00000000000000000, 1.347111479062088405E-15, 7.000000000000000000 ) ) ;
#27 = MECHANICAL_CONTEXT ( 'NONE', #71, 'mechanical' ) ;
#28 = CYLINDRICAL_SURFACE ( 'NONE', #136, 11.00000000000000000 ) ;
#29 = DATE_AND_TIME ( #18, #195 ) ;
#30 = PLANE ( 'NONE',  #207 ) ;
#31 = CALENDAR_DATE ( 2022, 7, 7 ) ;
#32 = CIRCLE ( 'NONE', #159, 11.00000000000000000 ) ;
#33 = EDGE_CURVE ( 'NONE', #104, #38, #200, .T. ) ;
#34 = APPROVAL_DATE_TIME ( #137, #42 ) ;
#35 = ADVANCED_FACE ( 'NONE', ( #164 ), #238, .T. ) ;
#36 = ORIENTED_EDGE ( 'NONE', *, *, #25, .T. ) ;
#37 = APPROVAL_PERSON_ORGANIZATION ( #155, #60, #54 ) ;
#38 = VERTEX_POINT ( 'NONE', #237 ) ;
#39 = UNCERTAINTY_MEASURE_WITH_UNIT (LENGTH_MEASURE( 1.000000000000000082E-05 ), #89, 'distance_accuracy_value', 'NONE');
#40 = DIRECTION ( 'NONE',  ( -0.000000000000000000, -0.000000000000000000, -1.000000000000000000 ) ) ;
#41 = CARTESIAN_POINT ( 'NONE',  ( 6.500000000000000888, 7.960204194457796463E-16, 407.0000000000000000 ) ) ;
#42 = APPROVAL ( #249, 'NEURÈENÝ' ) ;
#43 = CARTESIAN_POINT ( 'NONE',  ( 0.000000000000000000, 0.000000000000000000, 7.000000000000000000 ) ) ;
#44 = ORIENTED_EDGE ( 'NONE', *, *, #224, .T. ) ;
#45 = CC_DESIGN_APPROVAL ( #60, ( #251 ) ) ;
#46 = PLANE ( 'NONE',  #198 ) ;
#47 = DIRECTION ( 'NONE',  ( 0.000000000000000000, 0.000000000000000000, 1.000000000000000000 ) ) ;
#48 = AXIS2_PLACEMENT_3D ( 'NONE', #68, #47, #131 ) ;
#49 = DIRECTION ( 'NONE',  ( -0.000000000000000000, -0.000000000000000000, -1.000000000000000000 ) ) ;
#50 = LINE ( 'NONE', #190, #105 ) ;
#51 = APPLICATION_PROTOCOL_DEFINITION ( 'international standard', 'config_control_design', 1994, #231 ) ;
#52 = PERSON_AND_ORGANIZATION ( #17, #96 ) ;
#53 = LOCAL_TIME ( 19, 16, 21.00000000000000000, #95 ) ;
#54 = APPROVAL_ROLE ( '' ) ;
#55 = EDGE_LOOP ( 'NONE', ( #225, #1, #176, #99 ) ) ;
#56 = AXIS2_PLACEMENT_3D ( 'NONE', #127, #108, #6 ) ;
#57 = FACE_OUTER_BOUND ( 'NONE', #182, .T. ) ;
#58 = CIRCLE ( 'NONE', #75, 6.500000000000000888 ) ;
#59 = VERTEX_POINT ( 'NONE', #41 ) ;
#60 = APPROVAL ( #232, 'NEURÈENÝ' ) ;
#61 = EDGE_LOOP ( 'NONE', ( #36, #76 ) ) ;
#62 = ORIENTED_EDGE ( 'NONE', *, *, #130, .F. ) ;
#63 = DIRECTION ( 'NONE',  ( 0.000000000000000000, 0.000000000000000000, 1.000000000000000000 ) ) ;
#64 = APPROVAL_PERSON_ORGANIZATION ( #154, #42, #157 ) ;
#65 = CARTESIAN_POINT ( 'NONE',  ( 0.000000000000000000, 0.000000000000000000, 407.0000000000000000 ) ) ;
#66 = CARTESIAN_POINT ( 'NONE',  ( 0.000000000000000000, 0.000000000000000000, 0.000000000000000000 ) ) ;
#67 = FACE_OUTER_BOUND ( 'NONE', #8, .T. ) ;
#68 = CARTESIAN_POINT ( 'NONE',  ( 0.000000000000000000, 0.000000000000000000, 0.000000000000000000 ) ) ;
#69 = PERSON_AND_ORGANIZATION ( #17, #96 ) ;
#70 = DIRECTION ( 'NONE',  ( 0.000000000000000000, 0.000000000000000000, 1.000000000000000000 ) ) ;
#71 = APPLICATION_CONTEXT ( 'configuration controlled 3d designs of mechanical parts and assemblies' ) ;
#72 = LOCAL_TIME ( 19, 16, 21.00000000000000000, #213 ) ;
#73 = APPROVAL_DATE_TIME ( #29, #60 ) ;
#74 = COORDINATED_UNIVERSAL_TIME_OFFSET ( 1, 0, .AHEAD. ) ;
#75 = AXIS2_PLACEMENT_3D ( 'NONE', #65, #180, #3 ) ;
#76 = ORIENTED_EDGE ( 'NONE', *, *, #244, .T. ) ;
#77 = DIRECTION ( 'NONE',  ( -0.000000000000000000, -0.000000000000000000, -1.000000000000000000 ) ) ;
#78 = AXIS2_PLACEMENT_3D ( 'NONE', #223, #206, #24 ) ;
#79 = EDGE_CURVE ( 'NONE', #197, #104, #203, .T. ) ;
#80 = ORIENTED_EDGE ( 'NONE', *, *, #233, .T. ) ;
#81 = CARTESIAN_POINT ( 'NONE',  ( 0.000000000000000000, 0.000000000000000000, 0.000000000000000000 ) ) ;
#82 = CARTESIAN_POINT ( 'NONE',  ( 0.000000000000000000, 0.000000000000000000, 407.0000000000000000 ) ) ;
#83 = APPROVAL ( #120, 'NEURÈENÝ' ) ;
#84 = EDGE_LOOP ( 'NONE', ( #102, #123 ) ) ;
#85 = PRODUCT_DEFINITION_FORMATION_WITH_SPECIFIED_SOURCE ( 'LIBOVOLNÝ', '', #216, .NOT_KNOWN. ) ;
#86 = DIRECTION ( 'NONE',  ( -1.000000000000000000, 0.000000000000000000, 0.000000000000000000 ) ) ;
#87 = CARTESIAN_POINT ( 'NONE',  ( 11.00000000000000000, 1.347111479062088405E-15, 0.000000000000000000 ) ) ;
#88 = CC_DESIGN_PERSON_AND_ORGANIZATION_ASSIGNMENT ( #194, #172, ( #251 ) ) ;
#89 =( LENGTH_UNIT ( ) NAMED_UNIT ( * ) SI_UNIT ( .MILLI., .METRE. ) );
#90 = COORDINATED_UNIVERSAL_TIME_OFFSET ( 1, 0, .AHEAD. ) ;
#91 = DIRECTION ( 'NONE',  ( -0.000000000000000000, -0.000000000000000000, -1.000000000000000000 ) ) ;
#92 = ORIENTED_EDGE ( 'NONE', *, *, #193, .F. ) ;
#93 = DATE_TIME_ROLE ( 'creation_date' ) ;
#94 = MANIFOLD_SOLID_BREP ( 'Pøidat vysunutím3', #240 ) ;
#95 = COORDINATED_UNIVERSAL_TIME_OFFSET ( 1, 0, .AHEAD. ) ;
#96 = ORGANIZATION ( 'NEURÈENÝ', 'NEURÈENÝ', '' ) ;
#97 = CC_DESIGN_SECURITY_CLASSIFICATION ( #235, ( #85 ) ) ;
#98 = DATE_TIME_ROLE ( 'classification_date' ) ;
#99 = ORIENTED_EDGE ( 'NONE', *, *, #103, .F. ) ;
#100 = ADVANCED_FACE ( 'NONE', ( #160, #126 ), #46, .T. ) ;
#101 = LOCAL_TIME ( 19, 16, 21.00000000000000000, #230 ) ;
#102 = ORIENTED_EDGE ( 'NONE', *, *, #33, .F. ) ;
#103 = EDGE_CURVE ( 'NONE', #183, #217, #205, .T. ) ;
#104 = VERTEX_POINT ( 'NONE', #163 ) ;
#105 = VECTOR ( 'NONE', #91, 1000.000000000000000 ) ;
#106 = CARTESIAN_POINT ( 'NONE',  ( -11.00000000000000000, 0.000000000000000000, 7.000000000000000000 ) ) ;
#107 = ORIENTED_EDGE ( 'NONE', *, *, #103, .T. ) ;
#108 = DIRECTION ( 'NONE',  ( 0.000000000000000000, 0.000000000000000000, 1.000000000000000000 ) ) ;
#109 = DIRECTION ( 'NONE',  ( 1.000000000000000000, 0.000000000000000000, 0.000000000000000000 ) ) ;
#110 = CIRCLE ( 'NONE', #78, 11.00000000000000000 ) ;
#111 = DIRECTION ( 'NONE',  ( 0.000000000000000000, 0.000000000000000000, 1.000000000000000000 ) ) ;
#112 = CC_DESIGN_PERSON_AND_ORGANIZATION_ASSIGNMENT ( #175, #252, ( #216 ) ) ;
#113 = APPLICATION_PROTOCOL_DEFINITION ( 'international standard', 'config_control_design', 1994, #71 ) ;
#114 = PERSON_AND_ORGANIZATION ( #17, #96 ) ;
#115 = CARTESIAN_POINT ( 'NONE',  ( 0.000000000000000000, 0.000000000000000000, 7.000000000000000000 ) ) ;
#116 = PERSON_AND_ORGANIZATION ( #17, #96 ) ;
#117 = AXIS2_PLACEMENT_3D ( 'NONE', #218, #40, #125 ) ;
#118 = CALENDAR_DATE ( 2022, 7, 7 ) ;
#119 = PRODUCT_RELATED_PRODUCT_CATEGORY ( 'detail', '', ( #216 ) ) ;
#120 = APPROVAL_STATUS ( 'not_yet_approved' ) ;
#121 = PERSON_AND_ORGANIZATION_ROLE ( 'creator' ) ;
#122 = EDGE_CURVE ( 'NONE', #247, #217, #124, .T. ) ;
#123 = ORIENTED_EDGE ( 'NONE', *, *, #204, .F. ) ;
#124 = CIRCLE ( 'NONE', #9, 11.00000000000000000 ) ;
#125 = DIRECTION ( 'NONE',  ( -1.000000000000000000, 0.000000000000000000, 0.000000000000000000 ) ) ;
#126 = FACE_OUTER_BOUND ( 'NONE', #61, .T. ) ;
#127 = CARTESIAN_POINT ( 'NONE',  ( 0.000000000000000000, 0.000000000000000000, 7.000000000000000000 ) ) ;
#128 = AXIS2_PLACEMENT_3D ( 'NONE', #243, #246, #229 ) ;
#129 = DIRECTION ( 'NONE',  ( 1.000000000000000000, 0.000000000000000000, 0.000000000000000000 ) ) ;
#130 = EDGE_CURVE ( 'NONE', #21, #247, #236, .T. ) ;
#131 = DIRECTION ( 'NONE',  ( 1.000000000000000000, 0.000000000000000000, 0.000000000000000000 ) ) ;
#132 = PRODUCT_DEFINITION_SHAPE ( 'NONE', 'NONE',  #251 ) ;
#133 = LOCAL_TIME ( 19, 16, 21.00000000000000000, #74 ) ;
#134 = CARTESIAN_POINT ( 'NONE',  ( -11.00000000000000000, 0.000000000000000000, 0.000000000000000000 ) ) ;
#135 = PERSON_AND_ORGANIZATION_ROLE ( 'classification_officer' ) ;
#136 = AXIS2_PLACEMENT_3D ( 'NONE', #210, #13, #228 ) ;
#137 = DATE_AND_TIME ( #118, #72 ) ;
#138 =( GEOMETRIC_REPRESENTATION_CONTEXT ( 3 ) GLOBAL_UNCERTAINTY_ASSIGNED_CONTEXT ( ( #39 ) ) GLOBAL_UNIT_ASSIGNED_CONTEXT ( ( #89, #169, #150 ) ) REPRESENTATION_CONTEXT ( 'NONE', 'WORKASPACE' ) );
#139 = ORIENTED_EDGE ( 'NONE', *, *, #25, .F. ) ;
#140 = EDGE_LOOP ( 'NONE', ( #44, #248 ) ) ;
#141 = ORIENTED_EDGE ( 'NONE', *, *, #224, .F. ) ;
#142 = CYLINDRICAL_SURFACE ( 'NONE', #117, 11.00000000000000000 ) ;
#143 = CC_DESIGN_APPROVAL ( #42, ( #85 ) ) ;
#144 = ORIENTED_EDGE ( 'NONE', *, *, #193, .T. ) ;
#145 = CARTESIAN_POINT ( 'NONE',  ( 0.000000000000000000, 0.000000000000000000, 407.0000000000000000 ) ) ;
#146 = DIRECTION ( 'NONE',  ( -0.000000000000000000, -0.000000000000000000, -1.000000000000000000 ) ) ;
#147 = CYLINDRICAL_SURFACE ( 'NONE', #23, 6.500000000000000888 ) ;
#148 = CARTESIAN_POINT ( 'NONE',  ( 0.000000000000000000, 0.000000000000000000, 407.0000000000000000 ) ) ;
#149 = ADVANCED_FACE ( 'NONE', ( #57 ), #147, .T. ) ;
#150 =( NAMED_UNIT ( * ) SI_UNIT ( $, .STERADIAN. ) SOLID_ANGLE_UNIT ( ) );
#151 = FACE_OUTER_BOUND ( 'NONE', #10, .T. ) ;
#152 = CALENDAR_DATE ( 2022, 7, 7 ) ;
#153 = DIRECTION ( 'NONE',  ( 1.000000000000000000, 0.000000000000000000, 0.000000000000000000 ) ) ;
#154 = PERSON_AND_ORGANIZATION ( #17, #96 ) ;
#155 = PERSON_AND_ORGANIZATION ( #17, #96 ) ;
#156 = CALENDAR_DATE ( 2022, 7, 7 ) ;
#157 = APPROVAL_ROLE ( '' ) ;
#158 = ADVANCED_FACE ( 'NONE', ( #239 ), #142, .T. ) ;
#159 = AXIS2_PLACEMENT_3D ( 'NONE', #115, #168, #16 ) ;
#160 = FACE_BOUND ( 'NONE', #84, .T. ) ;
#161 = CC_DESIGN_DATE_AND_TIME_ASSIGNMENT ( #255, #98, ( #235 ) ) ;
#162 = CARTESIAN_POINT ( 'NONE',  ( -6.500000000000000888, 0.000000000000000000, 407.0000000000000000 ) ) ;
#163 = CARTESIAN_POINT ( 'NONE',  ( -6.500000000000000888, 0.000000000000000000, 7.000000000000000000 ) ) ;
#164 = FACE_OUTER_BOUND ( 'NONE', #140, .T. ) ;
#165 = CC_DESIGN_APPROVAL ( #83, ( #235 ) ) ;
#166 = ORIENTED_EDGE ( 'NONE', *, *, #79, .T. ) ;
#167 = CC_DESIGN_PERSON_AND_ORGANIZATION_ASSIGNMENT ( #116, #121, ( #85 ) ) ;
#168 = DIRECTION ( 'NONE',  ( 0.000000000000000000, 0.000000000000000000, 1.000000000000000000 ) ) ;
#169 =( NAMED_UNIT ( * ) PLANE_ANGLE_UNIT ( ) SI_UNIT ( $, .RADIAN. ) );
#170 = CC_DESIGN_DATE_AND_TIME_ASSIGNMENT ( #174, #93, ( #251 ) ) ;
#171 = DIRECTION ( 'NONE',  ( 1.000000000000000000, 0.000000000000000000, -0.000000000000000000 ) ) ;
#172 = PERSON_AND_ORGANIZATION_ROLE ( 'creator' ) ;
#173 = APPROVAL_DATE_TIME ( #192, #83 ) ;
#174 = DATE_AND_TIME ( #156, #53 ) ;
#175 = PERSON_AND_ORGANIZATION ( #17, #96 ) ;
#176 = ORIENTED_EDGE ( 'NONE', *, *, #122, .T. ) ;
#177 = AXIS2_PLACEMENT_3D ( 'NONE', #187, #191, #153 ) ;
#178 = CC_DESIGN_PERSON_AND_ORGANIZATION_ASSIGNMENT ( #69, #254, ( #85 ) ) ;
#179 = CARTESIAN_POINT ( 'NONE',  ( 11.00000000000000000, 1.347111479062088405E-15, 7.000000000000000000 ) ) ;
#180 = DIRECTION ( 'NONE',  ( 0.000000000000000000, 0.000000000000000000, 1.000000000000000000 ) ) ;
#181 = DIRECTION ( 'NONE',  ( 1.000000000000000000, 0.000000000000000000, -0.000000000000000000 ) ) ;
#182 = EDGE_LOOP ( 'NONE', ( #92, #141, #166, #242 ) ) ;
#183 = VERTEX_POINT ( 'NONE', #202 ) ;
#184 = ORIENTED_EDGE ( 'NONE', *, *, #79, .F. ) ;
#185 = EDGE_LOOP ( 'NONE', ( #62, #139, #107, #80 ) ) ;
#186 = VECTOR ( 'NONE', #146, 1000.000000000000000 ) ;
#187 = CARTESIAN_POINT ( 'NONE',  ( 0.000000000000000000, 0.000000000000000000, 0.000000000000000000 ) ) ;
#188 = DESIGN_CONTEXT ( 'detailed design', #231, 'design' ) ;
#189 = CARTESIAN_POINT ( 'NONE',  ( 0.000000000000000000, 0.000000000000000000, 407.0000000000000000 ) ) ;
#190 = CARTESIAN_POINT ( 'NONE',  ( 6.500000000000000888, 7.960204194457796463E-16, 407.0000000000000000 ) ) ;
#191 = DIRECTION ( 'NONE',  ( 0.000000000000000000, 0.000000000000000000, 1.000000000000000000 ) ) ;
#192 = DATE_AND_TIME ( #31, #101 ) ;
#193 = EDGE_CURVE ( 'NONE', #59, #38, #50, .T. ) ;
#194 = PERSON_AND_ORGANIZATION ( #17, #96 ) ;
#195 = LOCAL_TIME ( 19, 16, 21.00000000000000000, #90 ) ;
#196 = ORIENTED_EDGE ( 'NONE', *, *, #122, .F. ) ;
#197 = VERTEX_POINT ( 'NONE', #208 ) ;
#198 = AXIS2_PLACEMENT_3D ( 'NONE', #43, #22, #181 ) ;
#199 = ADVANCED_FACE ( 'NONE', ( #151 ), #226, .T. ) ;
#200 = CIRCLE ( 'NONE', #56, 6.500000000000000888 ) ;
#201 = ADVANCED_BREP_SHAPE_REPRESENTATION ( 'f236', ( #94, #48 ), #138 ) ;
#202 = CARTESIAN_POINT ( 'NONE',  ( -11.00000000000000000, 0.000000000000000000, 7.000000000000000000 ) ) ;
#203 = LINE ( 'NONE', #162, #222 ) ;
#204 = EDGE_CURVE ( 'NONE', #38, #104, #212, .T. ) ;
#205 = LINE ( 'NONE', #106, #186 ) ;
#206 = DIRECTION ( 'NONE',  ( 0.000000000000000000, 0.000000000000000000, 1.000000000000000000 ) ) ;
#207 = AXIS2_PLACEMENT_3D ( 'NONE', #66, #111, #171 ) ;
#208 = CARTESIAN_POINT ( 'NONE',  ( -6.500000000000000888, 0.000000000000000000, 407.0000000000000000 ) ) ;
#209 = CC_DESIGN_PERSON_AND_ORGANIZATION_ASSIGNMENT ( #52, #135, ( #235 ) ) ;
#210 = CARTESIAN_POINT ( 'NONE',  ( 0.000000000000000000, 0.000000000000000000, 7.000000000000000000 ) ) ;
#211 = APPROVAL_ROLE ( '' ) ;
#212 = CIRCLE ( 'NONE', #128, 6.500000000000000888 ) ;
#213 = COORDINATED_UNIVERSAL_TIME_OFFSET ( 1, 0, .AHEAD. ) ;
#214 = AXIS2_PLACEMENT_3D ( 'NONE', #145, #63, #221 ) ;
#215 = ORIENTED_EDGE ( 'NONE', *, *, #233, .F. ) ;
#216 = PRODUCT ( 'f236', 'f236', '', ( #27 ) ) ;
#217 = VERTEX_POINT ( 'NONE', #134 ) ;
#218 = CARTESIAN_POINT ( 'NONE',  ( 0.000000000000000000, 0.000000000000000000, 7.000000000000000000 ) ) ;
#219 = DIRECTION ( 'NONE',  ( -1.000000000000000000, 0.000000000000000000, 0.000000000000000000 ) ) ;
#220 = DIRECTION ( 'NONE',  ( -0.000000000000000000, -0.000000000000000000, -1.000000000000000000 ) ) ;
#221 = DIRECTION ( 'NONE',  ( 1.000000000000000000, 0.000000000000000000, -0.000000000000000000 ) ) ;
#222 = VECTOR ( 'NONE', #220, 1000.000000000000000 ) ;
#223 = CARTESIAN_POINT ( 'NONE',  ( 0.000000000000000000, 0.000000000000000000, 7.000000000000000000 ) ) ;
#224 = EDGE_CURVE ( 'NONE', #197, #59, #2, .T. ) ;
#225 = ORIENTED_EDGE ( 'NONE', *, *, #244, .F. ) ;
#226 = CYLINDRICAL_SURFACE ( 'NONE', #15, 6.500000000000000888 ) ;
#227 = AXIS2_PLACEMENT_3D ( 'NONE', #189, #70, #109 ) ;
#228 = DIRECTION ( 'NONE',  ( -1.000000000000000000, 0.000000000000000000, 0.000000000000000000 ) ) ;
#229 = DIRECTION ( 'NONE',  ( 1.000000000000000000, 0.000000000000000000, 0.000000000000000000 ) ) ;
#230 = COORDINATED_UNIVERSAL_TIME_OFFSET ( 1, 0, .AHEAD. ) ;
#231 = APPLICATION_CONTEXT ( 'configuration controlled 3d designs of mechanical parts and assemblies' ) ;
#232 = APPROVAL_STATUS ( 'not_yet_approved' ) ;
#233 = EDGE_CURVE ( 'NONE', #217, #247, #253, .T. ) ;
#234 = DIRECTION ( 'NONE',  ( 0.000000000000000000, 0.000000000000000000, 1.000000000000000000 ) ) ;
#235 = SECURITY_CLASSIFICATION ( '', '', #20 ) ;
#236 = LINE ( 'NONE', #26, #19 ) ;
#237 = CARTESIAN_POINT ( 'NONE',  ( 6.500000000000000888, 7.960204194457796463E-16, 7.000000000000000000 ) ) ;
#238 = PLANE ( 'NONE',  #214 ) ;
#239 = FACE_OUTER_BOUND ( 'NONE', #55, .T. ) ;
#240 = CLOSED_SHELL ( 'NONE', ( #199, #158, #241, #100, #245, #149, #35 ) ) ;
#241 = ADVANCED_FACE ( 'NONE', ( #11 ), #28, .T. ) ;
#242 = ORIENTED_EDGE ( 'NONE', *, *, #33, .T. ) ;
#243 = CARTESIAN_POINT ( 'NONE',  ( 0.000000000000000000, 0.000000000000000000, 7.000000000000000000 ) ) ;
#244 = EDGE_CURVE ( 'NONE', #21, #183, #32, .T. ) ;
#245 = ADVANCED_FACE ( 'NONE', ( #67 ), #30, .F. ) ;
#246 = DIRECTION ( 'NONE',  ( 0.000000000000000000, 0.000000000000000000, 1.000000000000000000 ) ) ;
#247 = VERTEX_POINT ( 'NONE', #87 ) ;
#248 = ORIENTED_EDGE ( 'NONE', *, *, #12, .T. ) ;
#249 = APPROVAL_STATUS ( 'not_yet_approved' ) ;
#250 = ORIENTED_EDGE ( 'NONE', *, *, #204, .T. ) ;
#251 = PRODUCT_DEFINITION ( 'NEZNÁMÝ', '', #85, #188 ) ;
#252 = PERSON_AND_ORGANIZATION_ROLE ( 'design_owner' ) ;
#253 = CIRCLE ( 'NONE', #177, 11.00000000000000000 ) ;
#254 = PERSON_AND_ORGANIZATION_ROLE ( 'design_supplier' ) ;
#255 = DATE_AND_TIME ( #152, #133 ) ;
ENDSEC;
END-ISO-10303-21;
