ISO-10303-21;
HEADER;
FILE_DESCRIPTION (( 'STEP AP203' ),
    '1' );
FILE_NAME ('337f.STEP',
    '2022-07-07T17:31:04',
    ( '' ),
    ( '' ),
    'SwSTEP 2.0',
    'SolidWorks 2019',
    '' );
FILE_SCHEMA (( 'CONFIG_CONTROL_DESIGN' ));
ENDSEC;

DATA;
#1 = SHAPE_DEFINITION_REPRESENTATION ( #59, #72 ) ;
#2 = PRODUCT_RELATED_PRODUCT_CATEGORY ( 'detail', '', ( #103 ) ) ;
#3 = ORIENTED_EDGE ( 'NONE', *, *, #241, .F. ) ;
#4 = CC_DESIGN_SECURITY_CLASSIFICATION ( #31, ( #138 ) ) ;
#5 = CIRCLE ( 'NONE', #250, 4.250000000000000000 ) ;
#6 = DIRECTION ( 'NONE',  ( 1.000000000000000000, 0.000000000000000000, 0.000000000000000000 ) ) ;
#7 = PLANE ( 'NONE',  #99 ) ;
#8 = CIRCLE ( 'NONE', #153, 4.250000000000000000 ) ;
#9 = DIRECTION ( 'NONE',  ( 0.000000000000000000, 0.000000000000000000, 1.000000000000000000 ) ) ;
#10 = APPROVAL ( #136, 'NEURÈENÝ' ) ;
#11 = DIRECTION ( 'NONE',  ( 1.000000000000000000, 0.000000000000000000, 0.000000000000000000 ) ) ;
#12 = DIRECTION ( 'NONE',  ( 0.000000000000000000, 0.000000000000000000, 1.000000000000000000 ) ) ;
#13 = AXIS2_PLACEMENT_3D ( 'NONE', #38, #174, #76 ) ;
#14 = EDGE_LOOP ( 'NONE', ( #18, #64 ) ) ;
#15 =( NAMED_UNIT ( * ) SI_UNIT ( $, .STERADIAN. ) SOLID_ANGLE_UNIT ( ) );
#16 = CARTESIAN_POINT ( 'NONE',  ( -7.000000000000000000, 0.000000000000000000, 5.000000000000000000 ) ) ;
#17 = PERSON_AND_ORGANIZATION_ROLE ( 'classification_officer' ) ;
#18 = ORIENTED_EDGE ( 'NONE', *, *, #185, .F. ) ;
#19 = ORIENTED_EDGE ( 'NONE', *, *, #51, .F. ) ;
#20 = CALENDAR_DATE ( 2022, 7, 7 ) ;
#21 = APPROVAL_DATE_TIME ( #200, #60 ) ;
#22 = ORIENTED_EDGE ( 'NONE', *, *, #241, .T. ) ;
#23 = AXIS2_PLACEMENT_3D ( 'NONE', #105, #182, #6 ) ;
#24 = CIRCLE ( 'NONE', #57, 7.000000000000000000 ) ;
#25 = CARTESIAN_POINT ( 'NONE',  ( -7.000000000000000000, 0.000000000000000000, 5.000000000000000000 ) ) ;
#26 = ORIENTED_EDGE ( 'NONE', *, *, #51, .T. ) ;
#27 = DIRECTION ( 'NONE',  ( 1.000000000000000000, 0.000000000000000000, -0.000000000000000000 ) ) ;
#28 = LINE ( 'NONE', #108, #42 ) ;
#29 = ADVANCED_FACE ( 'NONE', ( #204 ), #7, .F. ) ;
#30 = EDGE_LOOP ( 'NONE', ( #151, #106 ) ) ;
#31 = SECURITY_CLASSIFICATION ( '', '', #171 ) ;
#32 = CARTESIAN_POINT ( 'NONE',  ( 0.000000000000000000, 0.000000000000000000, 105.0000000000000142 ) ) ;
#33 = AXIS2_PLACEMENT_3D ( 'NONE', #210, #68, #149 ) ;
#34 = DATE_AND_TIME ( #74, #122 ) ;
#35 = DIRECTION ( 'NONE',  ( -0.000000000000000000, -0.000000000000000000, -1.000000000000000000 ) ) ;
#36 = CALENDAR_DATE ( 2022, 7, 7 ) ;
#37 = AXIS2_PLACEMENT_3D ( 'NONE', #127, #89, #167 ) ;
#38 = CARTESIAN_POINT ( 'NONE',  ( 0.000000000000000000, 0.000000000000000000, 0.000000000000000000 ) ) ;
#39 = CALENDAR_DATE ( 2022, 7, 7 ) ;
#40 = ADVANCED_FACE ( 'NONE', ( #244 ), #87, .T. ) ;
#41 = ORIENTED_EDGE ( 'NONE', *, *, #155, .F. ) ;
#42 = VECTOR ( 'NONE', #214, 1000.000000000000000 ) ;
#43 = ORIENTED_EDGE ( 'NONE', *, *, #179, .T. ) ;
#44 = CARTESIAN_POINT ( 'NONE',  ( 0.000000000000000000, 0.000000000000000000, 5.000000000000000000 ) ) ;
#45 = EDGE_LOOP ( 'NONE', ( #143, #26 ) ) ;
#46 = DIRECTION ( 'NONE',  ( 1.000000000000000000, 0.000000000000000000, 0.000000000000000000 ) ) ;
#47 = PRODUCT_DEFINITION ( 'NEZNÁMÝ', '', #138, #71 ) ;
#48 = FACE_OUTER_BOUND ( 'NONE', #62, .T. ) ;
#49 = LINE ( 'NONE', #16, #97 ) ;
#50 = DIRECTION ( 'NONE',  ( 0.000000000000000000, 0.000000000000000000, 1.000000000000000000 ) ) ;
#51 = EDGE_CURVE ( 'NONE', #194, #139, #254, .T. ) ;
#52 = COORDINATED_UNIVERSAL_TIME_OFFSET ( 1, 0, .AHEAD. ) ;
#53 = APPROVAL_DATE_TIME ( #92, #225 ) ;
#54 = COORDINATED_UNIVERSAL_TIME_OFFSET ( 1, 0, .AHEAD. ) ;
#55 = APPROVAL_PERSON_ORGANIZATION ( #234, #225, #253 ) ;
#56 = APPROVAL_STATUS ( 'not_yet_approved' ) ;
#57 = AXIS2_PLACEMENT_3D ( 'NONE', #61, #186, #11 ) ;
#58 = CIRCLE ( 'NONE', #202, 7.000000000000000000 ) ;
#59 = PRODUCT_DEFINITION_SHAPE ( 'NONE', 'NONE',  #47 ) ;
#60 = APPROVAL ( #221, 'NEURÈENÝ' ) ;
#61 = CARTESIAN_POINT ( 'NONE',  ( 0.000000000000000000, 0.000000000000000000, 5.000000000000000000 ) ) ;
#62 = EDGE_LOOP ( 'NONE', ( #222, #183, #22, #226 ) ) ;
#63 = CC_DESIGN_PERSON_AND_ORGANIZATION_ASSIGNMENT ( #96, #152, ( #47 ) ) ;
#64 = ORIENTED_EDGE ( 'NONE', *, *, #252, .F. ) ;
#65 = LINE ( 'NONE', #69, #216 ) ;
#66 = CARTESIAN_POINT ( 'NONE',  ( 4.250000000000000000, 5.204748896376250699E-16, 105.0000000000000142 ) ) ;
#67 = FACE_OUTER_BOUND ( 'NONE', #30, .T. ) ;
#68 = DIRECTION ( 'NONE',  ( -0.000000000000000000, -0.000000000000000000, -1.000000000000000000 ) ) ;
#69 = CARTESIAN_POINT ( 'NONE',  ( -4.250000000000000000, 0.000000000000000000, 105.0000000000000142 ) ) ;
#70 =( LENGTH_UNIT ( ) NAMED_UNIT ( * ) SI_UNIT ( .MILLI., .METRE. ) );
#71 = DESIGN_CONTEXT ( 'detailed design', #102, 'design' ) ;
#72 = ADVANCED_BREP_SHAPE_REPRESENTATION ( '337f', ( #137, #13 ), #212 ) ;
#73 = VERTEX_POINT ( 'NONE', #84 ) ;
#74 = CALENDAR_DATE ( 2022, 7, 7 ) ;
#75 = AXIS2_PLACEMENT_3D ( 'NONE', #44, #107, #246 ) ;
#76 = DIRECTION ( 'NONE',  ( 1.000000000000000000, 0.000000000000000000, 0.000000000000000000 ) ) ;
#77 = DATE_AND_TIME ( #129, #195 ) ;
#78 = ADVANCED_FACE ( 'NONE', ( #147, #248 ), #240, .T. ) ;
#79 = APPROVAL_PERSON_ORGANIZATION ( #220, #10, #219 ) ;
#80 = CC_DESIGN_APPROVAL ( #225, ( #47 ) ) ;
#81 = CARTESIAN_POINT ( 'NONE',  ( 0.000000000000000000, 0.000000000000000000, 105.0000000000000142 ) ) ;
#82 = CARTESIAN_POINT ( 'NONE',  ( 0.000000000000000000, 0.000000000000000000, 5.000000000000000000 ) ) ;
#83 = DIRECTION ( 'NONE',  ( -0.000000000000000000, -0.000000000000000000, -1.000000000000000000 ) ) ;
#84 = CARTESIAN_POINT ( 'NONE',  ( -4.250000000000000000, 0.000000000000000000, 105.0000000000000142 ) ) ;
#85 = CYLINDRICAL_SURFACE ( 'NONE', #170, 4.250000000000000000 ) ;
#86 = APPLICATION_CONTEXT ( 'configuration controlled 3d designs of mechanical parts and assemblies' ) ;
#87 = CYLINDRICAL_SURFACE ( 'NONE', #75, 7.000000000000000000 ) ;
#88 = CARTESIAN_POINT ( 'NONE',  ( 0.000000000000000000, 0.000000000000000000, 105.0000000000000142 ) ) ;
#89 = DIRECTION ( 'NONE',  ( 0.000000000000000000, 0.000000000000000000, 1.000000000000000000 ) ) ;
#90 = APPLICATION_PROTOCOL_DEFINITION ( 'international standard', 'config_control_design', 1994, #86 ) ;
#91 = CARTESIAN_POINT ( 'NONE',  ( -7.000000000000000000, 0.000000000000000000, 0.000000000000000000 ) ) ;
#92 = DATE_AND_TIME ( #20, #227 ) ;
#93 = ORIENTED_EDGE ( 'NONE', *, *, #185, .T. ) ;
#94 = CC_DESIGN_DATE_AND_TIME_ASSIGNMENT ( #34, #135, ( #47 ) ) ;
#95 = DATE_AND_TIME ( #36, #180 ) ;
#96 = PERSON_AND_ORGANIZATION ( #191, #188 ) ;
#97 = VECTOR ( 'NONE', #35, 1000.000000000000000 ) ;
#98 = EDGE_LOOP ( 'NONE', ( #131, #41, #224, #93 ) ) ;
#99 = AXIS2_PLACEMENT_3D ( 'NONE', #123, #161, #145 ) ;
#100 = EDGE_LOOP ( 'NONE', ( #19, #197, #242, #3 ) ) ;
#101 = CC_DESIGN_APPROVAL ( #60, ( #31 ) ) ;
#102 = APPLICATION_CONTEXT ( 'configuration controlled 3d designs of mechanical parts and assemblies' ) ;
#103 = PRODUCT ( '337f', '337f', '', ( #193 ) ) ;
#104 = AXIS2_PLACEMENT_3D ( 'NONE', #82, #228, #208 ) ;
#105 = CARTESIAN_POINT ( 'NONE',  ( 0.000000000000000000, 0.000000000000000000, 105.0000000000000142 ) ) ;
#106 = ORIENTED_EDGE ( 'NONE', *, *, #140, .T. ) ;
#107 = DIRECTION ( 'NONE',  ( -0.000000000000000000, -0.000000000000000000, -1.000000000000000000 ) ) ;
#108 = CARTESIAN_POINT ( 'NONE',  ( 7.000000000000000000, 8.572527594031473190E-16, 5.000000000000000000 ) ) ;
#109 = EDGE_CURVE ( 'NONE', #139, #194, #24, .T. ) ;
#110 = VERTEX_POINT ( 'NONE', #163 ) ;
#111 =( NAMED_UNIT ( * ) PLANE_ANGLE_UNIT ( ) SI_UNIT ( $, .RADIAN. ) );
#112 = CARTESIAN_POINT ( 'NONE',  ( 0.000000000000000000, 0.000000000000000000, 0.000000000000000000 ) ) ;
#113 = APPROVAL_DATE_TIME ( #95, #10 ) ;
#114 = DIRECTION ( 'NONE',  ( 1.000000000000000000, 0.000000000000000000, 0.000000000000000000 ) ) ;
#115 = PERSON_AND_ORGANIZATION ( #191, #188 ) ;
#116 = CC_DESIGN_APPROVAL ( #10, ( #138 ) ) ;
#117 = PERSON_AND_ORGANIZATION ( #191, #188 ) ;
#118 = APPROVAL_ROLE ( '' ) ;
#119 = VERTEX_POINT ( 'NONE', #66 ) ;
#120 = VERTEX_POINT ( 'NONE', #230 ) ;
#121 = DIRECTION ( 'NONE',  ( 0.000000000000000000, 0.000000000000000000, 1.000000000000000000 ) ) ;
#122 = LOCAL_TIME ( 19, 31, 4.000000000000000000, #54 ) ;
#123 = CARTESIAN_POINT ( 'NONE',  ( 0.000000000000000000, 0.000000000000000000, 0.000000000000000000 ) ) ;
#124 = ORIENTED_EDGE ( 'NONE', *, *, #140, .F. ) ;
#125 = FACE_OUTER_BOUND ( 'NONE', #98, .T. ) ;
#126 = CYLINDRICAL_SURFACE ( 'NONE', #33, 7.000000000000000000 ) ;
#127 = CARTESIAN_POINT ( 'NONE',  ( 0.000000000000000000, 0.000000000000000000, 5.000000000000000000 ) ) ;
#128 = CARTESIAN_POINT ( 'NONE',  ( 0.000000000000000000, 0.000000000000000000, 105.0000000000000142 ) ) ;
#129 = CALENDAR_DATE ( 2022, 7, 7 ) ;
#130 = DIRECTION ( 'NONE',  ( -0.000000000000000000, -0.000000000000000000, -1.000000000000000000 ) ) ;
#131 = ORIENTED_EDGE ( 'NONE', *, *, #179, .F. ) ;
#132 = COORDINATED_UNIVERSAL_TIME_OFFSET ( 1, 0, .AHEAD. ) ;
#133 = CIRCLE ( 'NONE', #23, 4.250000000000000000 ) ;
#134 = ADVANCED_FACE ( 'NONE', ( #48 ), #126, .T. ) ;
#135 = DATE_TIME_ROLE ( 'creation_date' ) ;
#136 = APPROVAL_STATUS ( 'not_yet_approved' ) ;
#137 = MANIFOLD_SOLID_BREP ( 'Pøidat vysunutím3', #218 ) ;
#138 = PRODUCT_DEFINITION_FORMATION_WITH_SPECIFIED_SOURCE ( 'LIBOVOLNÝ', '', #103, .NOT_KNOWN. ) ;
#139 = VERTEX_POINT ( 'NONE', #25 ) ;
#140 = EDGE_CURVE ( 'NONE', #119, #73, #133, .T. ) ;
#141 = ORIENTED_EDGE ( 'NONE', *, *, #181, .F. ) ;
#142 = VECTOR ( 'NONE', #146, 1000.000000000000000 ) ;
#143 = ORIENTED_EDGE ( 'NONE', *, *, #109, .T. ) ;
#144 = AXIS2_PLACEMENT_3D ( 'NONE', #162, #229, #46 ) ;
#145 = DIRECTION ( 'NONE',  ( 1.000000000000000000, 0.000000000000000000, -0.000000000000000000 ) ) ;
#146 = DIRECTION ( 'NONE',  ( -0.000000000000000000, -0.000000000000000000, -1.000000000000000000 ) ) ;
#147 = FACE_BOUND ( 'NONE', #14, .T. ) ;
#148 = DIRECTION ( 'NONE',  ( -1.000000000000000000, 0.000000000000000000, 0.000000000000000000 ) ) ;
#149 = DIRECTION ( 'NONE',  ( -1.000000000000000000, 0.000000000000000000, 0.000000000000000000 ) ) ;
#150 = DIRECTION ( 'NONE',  ( -1.000000000000000000, 0.000000000000000000, 0.000000000000000000 ) ) ;
#151 = ORIENTED_EDGE ( 'NONE', *, *, #155, .T. ) ;
#152 = PERSON_AND_ORGANIZATION_ROLE ( 'creator' ) ;
#153 = AXIS2_PLACEMENT_3D ( 'NONE', #81, #12, #247 ) ;
#154 = PERSON_AND_ORGANIZATION_ROLE ( 'creator' ) ;
#155 = EDGE_CURVE ( 'NONE', #73, #119, #8, .T. ) ;
#156 = CC_DESIGN_DATE_AND_TIME_ASSIGNMENT ( #77, #235, ( #31 ) ) ;
#157 = CIRCLE ( 'NONE', #144, 7.000000000000000000 ) ;
#158 = CC_DESIGN_PERSON_AND_ORGANIZATION_ASSIGNMENT ( #255, #154, ( #138 ) ) ;
#159 = CARTESIAN_POINT ( 'NONE',  ( 0.000000000000000000, 0.000000000000000000, 5.000000000000000000 ) ) ;
#160 = ORIENTED_EDGE ( 'NONE', *, *, #199, .F. ) ;
#161 = DIRECTION ( 'NONE',  ( 0.000000000000000000, 0.000000000000000000, 1.000000000000000000 ) ) ;
#162 = CARTESIAN_POINT ( 'NONE',  ( 0.000000000000000000, 0.000000000000000000, 0.000000000000000000 ) ) ;
#163 = CARTESIAN_POINT ( 'NONE',  ( 7.000000000000000000, 8.572527594031473190E-16, 0.000000000000000000 ) ) ;
#164 = PLANE ( 'NONE',  #237 ) ;
#165 = CARTESIAN_POINT ( 'NONE',  ( 0.000000000000000000, 0.000000000000000000, 5.000000000000000000 ) ) ;
#166 = PERSON_AND_ORGANIZATION ( #191, #188 ) ;
#167 = DIRECTION ( 'NONE',  ( 1.000000000000000000, 0.000000000000000000, 0.000000000000000000 ) ) ;
#168 = UNCERTAINTY_MEASURE_WITH_UNIT (LENGTH_MEASURE( 1.000000000000000082E-05 ), #70, 'distance_accuracy_value', 'NONE');
#169 = ADVANCED_FACE ( 'NONE', ( #172 ), #245, .T. ) ;
#170 = AXIS2_PLACEMENT_3D ( 'NONE', #128, #83, #148 ) ;
#171 = SECURITY_CLASSIFICATION_LEVEL ( 'unclassified' ) ;
#172 = FACE_OUTER_BOUND ( 'NONE', #206, .T. ) ;
#173 = PERSON_AND_ORGANIZATION_ROLE ( 'design_supplier' ) ;
#174 = DIRECTION ( 'NONE',  ( 0.000000000000000000, 0.000000000000000000, 1.000000000000000000 ) ) ;
#175 = CC_DESIGN_PERSON_AND_ORGANIZATION_ASSIGNMENT ( #117, #198, ( #103 ) ) ;
#176 = PERSON_AND_ORGANIZATION ( #191, #188 ) ;
#177 = ORIENTED_EDGE ( 'NONE', *, *, #207, .F. ) ;
#178 = AXIS2_PLACEMENT_3D ( 'NONE', #88, #130, #150 ) ;
#179 = EDGE_CURVE ( 'NONE', #119, #239, #232, .T. ) ;
#180 = LOCAL_TIME ( 19, 31, 4.000000000000000000, #132 ) ;
#181 = EDGE_CURVE ( 'NONE', #73, #120, #65, .T. ) ;
#182 = DIRECTION ( 'NONE',  ( 0.000000000000000000, 0.000000000000000000, 1.000000000000000000 ) ) ;
#183 = ORIENTED_EDGE ( 'NONE', *, *, #109, .F. ) ;
#184 = DIRECTION ( 'NONE',  ( -0.000000000000000000, -0.000000000000000000, -1.000000000000000000 ) ) ;
#185 = EDGE_CURVE ( 'NONE', #120, #239, #5, .T. ) ;
#186 = DIRECTION ( 'NONE',  ( 0.000000000000000000, 0.000000000000000000, 1.000000000000000000 ) ) ;
#187 = CARTESIAN_POINT ( 'NONE',  ( 4.250000000000000000, 5.204748896376250699E-16, 5.000000000000000000 ) ) ;
#188 = ORGANIZATION ( 'NEURÈENÝ', 'NEURÈENÝ', '' ) ;
#189 = VERTEX_POINT ( 'NONE', #91 ) ;
#190 = ADVANCED_FACE ( 'NONE', ( #67 ), #164, .T. ) ;
#191 = PERSON ( 'NEURÈENÝ', 'NEURÈENÝ', 'NEURÈENÝ', ('NEURÈENÝ'), ('NEURÈENÝ'), ('NEURÈENÝ') ) ;
#192 = DIRECTION ( 'NONE',  ( 0.000000000000000000, 0.000000000000000000, 1.000000000000000000 ) ) ;
#193 = MECHANICAL_CONTEXT ( 'NONE', #86, 'mechanical' ) ;
#194 = VERTEX_POINT ( 'NONE', #231 ) ;
#195 = LOCAL_TIME ( 19, 31, 4.000000000000000000, #196 ) ;
#196 = COORDINATED_UNIVERSAL_TIME_OFFSET ( 1, 0, .AHEAD. ) ;
#197 = ORIENTED_EDGE ( 'NONE', *, *, #236, .T. ) ;
#198 = PERSON_AND_ORGANIZATION_ROLE ( 'design_owner' ) ;
#199 = EDGE_CURVE ( 'NONE', #189, #110, #58, .T. ) ;
#200 = DATE_AND_TIME ( #39, #211 ) ;
#201 = APPROVAL_PERSON_ORGANIZATION ( #166, #60, #118 ) ;
#202 = AXIS2_PLACEMENT_3D ( 'NONE', #112, #192, #114 ) ;
#203 = ADVANCED_FACE ( 'NONE', ( #125 ), #85, .T. ) ;
#204 = FACE_OUTER_BOUND ( 'NONE', #238, .T. ) ;
#205 = CIRCLE ( 'NONE', #37, 4.250000000000000000 ) ;
#206 = EDGE_LOOP ( 'NONE', ( #124, #43, #251, #141 ) ) ;
#207 = EDGE_CURVE ( 'NONE', #110, #189, #157, .T. ) ;
#208 = DIRECTION ( 'NONE',  ( 1.000000000000000000, 0.000000000000000000, 0.000000000000000000 ) ) ;
#209 = CARTESIAN_POINT ( 'NONE',  ( 4.250000000000000000, 5.204748896376250699E-16, 105.0000000000000142 ) ) ;
#210 = CARTESIAN_POINT ( 'NONE',  ( 0.000000000000000000, 0.000000000000000000, 5.000000000000000000 ) ) ;
#211 = LOCAL_TIME ( 19, 31, 4.000000000000000000, #52 ) ;
#212 =( GEOMETRIC_REPRESENTATION_CONTEXT ( 3 ) GLOBAL_UNCERTAINTY_ASSIGNED_CONTEXT ( ( #168 ) ) GLOBAL_UNIT_ASSIGNED_CONTEXT ( ( #70, #111, #15 ) ) REPRESENTATION_CONTEXT ( 'NONE', 'WORKASPACE' ) );
#213 = CC_DESIGN_PERSON_AND_ORGANIZATION_ASSIGNMENT ( #176, #17, ( #31 ) ) ;
#214 = DIRECTION ( 'NONE',  ( -0.000000000000000000, -0.000000000000000000, -1.000000000000000000 ) ) ;
#215 = COORDINATED_UNIVERSAL_TIME_OFFSET ( 1, 0, .AHEAD. ) ;
#216 = VECTOR ( 'NONE', #184, 1000.000000000000000 ) ;
#217 = DIRECTION ( 'NONE',  ( 1.000000000000000000, 0.000000000000000000, 0.000000000000000000 ) ) ;
#218 = CLOSED_SHELL ( 'NONE', ( #169, #40, #134, #78, #29, #203, #190 ) ) ;
#219 = APPROVAL_ROLE ( '' ) ;
#220 = PERSON_AND_ORGANIZATION ( #191, #188 ) ;
#221 = APPROVAL_STATUS ( 'not_yet_approved' ) ;
#222 = ORIENTED_EDGE ( 'NONE', *, *, #236, .F. ) ;
#223 = CC_DESIGN_PERSON_AND_ORGANIZATION_ASSIGNMENT ( #115, #173, ( #138 ) ) ;
#224 = ORIENTED_EDGE ( 'NONE', *, *, #181, .T. ) ;
#225 = APPROVAL ( #56, 'NEURÈENÝ' ) ;
#226 = ORIENTED_EDGE ( 'NONE', *, *, #199, .T. ) ;
#227 = LOCAL_TIME ( 19, 31, 4.000000000000000000, #215 ) ;
#228 = DIRECTION ( 'NONE',  ( 0.000000000000000000, 0.000000000000000000, 1.000000000000000000 ) ) ;
#229 = DIRECTION ( 'NONE',  ( 0.000000000000000000, 0.000000000000000000, 1.000000000000000000 ) ) ;
#230 = CARTESIAN_POINT ( 'NONE',  ( -4.250000000000000000, 0.000000000000000000, 5.000000000000000000 ) ) ;
#231 = CARTESIAN_POINT ( 'NONE',  ( 7.000000000000000000, 8.572527594031473190E-16, 5.000000000000000000 ) ) ;
#232 = LINE ( 'NONE', #209, #142 ) ;
#233 = APPLICATION_PROTOCOL_DEFINITION ( 'international standard', 'config_control_design', 1994, #102 ) ;
#234 = PERSON_AND_ORGANIZATION ( #191, #188 ) ;
#235 = DATE_TIME_ROLE ( 'classification_date' ) ;
#236 = EDGE_CURVE ( 'NONE', #194, #110, #28, .T. ) ;
#237 = AXIS2_PLACEMENT_3D ( 'NONE', #32, #50, #249 ) ;
#238 = EDGE_LOOP ( 'NONE', ( #160, #177 ) ) ;
#239 = VERTEX_POINT ( 'NONE', #187 ) ;
#240 = PLANE ( 'NONE',  #243 ) ;
#241 = EDGE_CURVE ( 'NONE', #139, #189, #49, .T. ) ;
#242 = ORIENTED_EDGE ( 'NONE', *, *, #207, .T. ) ;
#243 = AXIS2_PLACEMENT_3D ( 'NONE', #159, #121, #27 ) ;
#244 = FACE_OUTER_BOUND ( 'NONE', #100, .T. ) ;
#245 = CYLINDRICAL_SURFACE ( 'NONE', #178, 4.250000000000000000 ) ;
#246 = DIRECTION ( 'NONE',  ( -1.000000000000000000, 0.000000000000000000, 0.000000000000000000 ) ) ;
#247 = DIRECTION ( 'NONE',  ( 1.000000000000000000, 0.000000000000000000, 0.000000000000000000 ) ) ;
#248 = FACE_OUTER_BOUND ( 'NONE', #45, .T. ) ;
#249 = DIRECTION ( 'NONE',  ( 1.000000000000000000, 0.000000000000000000, -0.000000000000000000 ) ) ;
#250 = AXIS2_PLACEMENT_3D ( 'NONE', #165, #9, #217 ) ;
#251 = ORIENTED_EDGE ( 'NONE', *, *, #252, .T. ) ;
#252 = EDGE_CURVE ( 'NONE', #239, #120, #205, .T. ) ;
#253 = APPROVAL_ROLE ( '' ) ;
#254 = CIRCLE ( 'NONE', #104, 7.000000000000000000 ) ;
#255 = PERSON_AND_ORGANIZATION ( #191, #188 ) ;
ENDSEC;
END-ISO-10303-21;
