ISO-10303-21;
HEADER;
FILE_DESCRIPTION (( 'STEP AP203' ),
    '1' );
FILE_NAME ('21d7.STEP',
    '2022-07-07T17:19:20',
    ( '' ),
    ( '' ),
    'SwSTEP 2.0',
    'SolidWorks 2019',
    '' );
FILE_SCHEMA (( 'CONFIG_CONTROL_DESIGN' ));
ENDSEC;

DATA;
#1 = PRODUCT ( '21d7', '21d7', '', ( #163 ) ) ;
#2 = APPROVAL ( #166, 'NEURÈENÝ' ) ;
#3 = APPLICATION_CONTEXT ( 'configuration controlled 3d designs of mechanical parts and assemblies' ) ;
#4 = APPROVAL_PERSON_ORGANIZATION ( #85, #6, #63 ) ;
#5 = APPLICATION_CONTEXT ( 'configuration controlled 3d designs of mechanical parts and assemblies' ) ;
#6 = APPROVAL ( #91, 'NEURÈENÝ' ) ;
#7 = AXIS2_PLACEMENT_3D ( 'NONE', #39, #114, #195 ) ;
#8 = ADVANCED_FACE ( 'NONE', ( #138 ), #214, .F. ) ;
#9 = CALENDAR_DATE ( 2022, 7, 7 ) ;
#10 = PERSON_AND_ORGANIZATION_ROLE ( 'creator' ) ;
#11 = CARTESIAN_POINT ( 'NONE',  ( 0.000000000000000000, 0.000000000000000000, 7.000000000000000000 ) ) ;
#12 = DIRECTION ( 'NONE',  ( -1.000000000000000000, 0.000000000000000000, 0.000000000000000000 ) ) ;
#13 = APPROVAL_PERSON_ORGANIZATION ( #240, #182, #191 ) ;
#14 = CARTESIAN_POINT ( 'NONE',  ( 0.000000000000000000, 0.000000000000000000, 507.0000000000000000 ) ) ;
#15 = CARTESIAN_POINT ( 'NONE',  ( 6.000000000000000888, 7.347880794884120722E-16, 507.0000000000000000 ) ) ;
#16 = PERSON_AND_ORGANIZATION_ROLE ( 'creator' ) ;
#17 = ORIENTED_EDGE ( 'NONE', *, *, #139, .F. ) ;
#18 = DIRECTION ( 'NONE',  ( -0.000000000000000000, -0.000000000000000000, -1.000000000000000000 ) ) ;
#19 = APPROVAL_DATE_TIME ( #246, #2 ) ;
#20 = EDGE_LOOP ( 'NONE', ( #56, #23 ) ) ;
#21 = CLOSED_SHELL ( 'NONE', ( #80, #254, #47, #173, #8, #196, #116 ) ) ;
#22 = EDGE_LOOP ( 'NONE', ( #252, #174, #55, #172 ) ) ;
#23 = ORIENTED_EDGE ( 'NONE', *, *, #68, .T. ) ;
#24 = EDGE_CURVE ( 'NONE', #111, #232, #50, .T. ) ;
#25 = ORGANIZATION ( 'NEURÈENÝ', 'NEURÈENÝ', '' ) ;
#26 = PERSON ( 'NEURÈENÝ', 'NEURÈENÝ', 'NEURÈENÝ', ('NEURÈENÝ'), ('NEURÈENÝ'), ('NEURÈENÝ') ) ;
#27 = DIRECTION ( 'NONE',  ( -0.000000000000000000, -0.000000000000000000, -1.000000000000000000 ) ) ;
#28 = CARTESIAN_POINT ( 'NONE',  ( -9.000000000000000000, 0.000000000000000000, 7.000000000000000000 ) ) ;
#29 = PERSON_AND_ORGANIZATION ( #26, #25 ) ;
#30 = CIRCLE ( 'NONE', #176, 6.000000000000000888 ) ;
#31 = DIRECTION ( 'NONE',  ( 1.000000000000000000, 0.000000000000000000, 0.000000000000000000 ) ) ;
#32 = CYLINDRICAL_SURFACE ( 'NONE', #113, 6.000000000000000888 ) ;
#33 = CC_DESIGN_DATE_AND_TIME_ASSIGNMENT ( #52, #130, ( #60 ) ) ;
#34 = LINE ( 'NONE', #142, #83 ) ;
#35 = DATE_AND_TIME ( #126, #156 ) ;
#36 = VERTEX_POINT ( 'NONE', #234 ) ;
#37 = CARTESIAN_POINT ( 'NONE',  ( -6.000000000000000888, 0.000000000000000000, 507.0000000000000000 ) ) ;
#38 = CIRCLE ( 'NONE', #200, 6.000000000000000888 ) ;
#39 = CARTESIAN_POINT ( 'NONE',  ( 0.000000000000000000, 0.000000000000000000, 0.000000000000000000 ) ) ;
#40 = AXIS2_PLACEMENT_3D ( 'NONE', #42, #66, #144 ) ;
#41 = PRODUCT_DEFINITION ( 'NEZNÁMÝ', '', #67, #109 ) ;
#42 = CARTESIAN_POINT ( 'NONE',  ( 0.000000000000000000, 0.000000000000000000, 0.000000000000000000 ) ) ;
#43 = CIRCLE ( 'NONE', #193, 6.000000000000000888 ) ;
#44 = DATE_TIME_ROLE ( 'creation_date' ) ;
#45 = PLANE ( 'NONE',  #58 ) ;
#46 = APPROVAL_STATUS ( 'not_yet_approved' ) ;
#47 = ADVANCED_FACE ( 'NONE', ( #181 ), #248, .T. ) ;
#48 = DIRECTION ( 'NONE',  ( 0.000000000000000000, 0.000000000000000000, 1.000000000000000000 ) ) ;
#49 = FACE_OUTER_BOUND ( 'NONE', #97, .T. ) ;
#50 = CIRCLE ( 'NONE', #87, 9.000000000000000000 ) ;
#51 = CARTESIAN_POINT ( 'NONE',  ( 0.000000000000000000, 0.000000000000000000, 507.0000000000000000 ) ) ;
#52 = DATE_AND_TIME ( #169, #61 ) ;
#53 = DIRECTION ( 'NONE',  ( 0.000000000000000000, 0.000000000000000000, 1.000000000000000000 ) ) ;
#54 = DIRECTION ( 'NONE',  ( -0.000000000000000000, -0.000000000000000000, -1.000000000000000000 ) ) ;
#55 = ORIENTED_EDGE ( 'NONE', *, *, #139, .T. ) ;
#56 = ORIENTED_EDGE ( 'NONE', *, *, #98, .T. ) ;
#57 = ORIENTED_EDGE ( 'NONE', *, *, #24, .T. ) ;
#58 = AXIS2_PLACEMENT_3D ( 'NONE', #11, #122, #244 ) ;
#59 = EDGE_LOOP ( 'NONE', ( #228, #131 ) ) ;
#60 = SECURITY_CLASSIFICATION ( '', '', #221 ) ;
#61 = LOCAL_TIME ( 19, 19, 20.00000000000000000, #188 ) ;
#62 = PERSON_AND_ORGANIZATION ( #26, #25 ) ;
#63 = APPROVAL_ROLE ( '' ) ;
#64 = VECTOR ( 'NONE', #54, 1000.000000000000000 ) ;
#65 = FACE_OUTER_BOUND ( 'NONE', #77, .T. ) ;
#66 = DIRECTION ( 'NONE',  ( 0.000000000000000000, 0.000000000000000000, 1.000000000000000000 ) ) ;
#67 = PRODUCT_DEFINITION_FORMATION_WITH_SPECIFIED_SOURCE ( 'LIBOVOLNÝ', '', #1, .NOT_KNOWN. ) ;
#68 = EDGE_CURVE ( 'NONE', #76, #253, #30, .T. ) ;
#69 = DIRECTION ( 'NONE',  ( 1.000000000000000000, 0.000000000000000000, 0.000000000000000000 ) ) ;
#70 = COORDINATED_UNIVERSAL_TIME_OFFSET ( 1, 0, .AHEAD. ) ;
#71 = CARTESIAN_POINT ( 'NONE',  ( -6.000000000000000888, 0.000000000000000000, 7.000000000000000000 ) ) ;
#72 =( LENGTH_UNIT ( ) NAMED_UNIT ( * ) SI_UNIT ( .MILLI., .METRE. ) );
#73 = CARTESIAN_POINT ( 'NONE',  ( 0.000000000000000000, 0.000000000000000000, 7.000000000000000000 ) ) ;
#74 = CC_DESIGN_PERSON_AND_ORGANIZATION_ASSIGNMENT ( #90, #16, ( #67 ) ) ;
#75 = DIRECTION ( 'NONE',  ( 0.000000000000000000, 0.000000000000000000, 1.000000000000000000 ) ) ;
#76 = VERTEX_POINT ( 'NONE', #15 ) ;
#77 = EDGE_LOOP ( 'NONE', ( #250, #192 ) ) ;
#78 = UNCERTAINTY_MEASURE_WITH_UNIT (LENGTH_MEASURE( 1.000000000000000082E-05 ), #72, 'distance_accuracy_value', 'NONE');
#79 = EDGE_LOOP ( 'NONE', ( #189, #112, #211, #17 ) ) ;
#80 = ADVANCED_FACE ( 'NONE', ( #183 ), #160, .T. ) ;
#81 = CC_DESIGN_DATE_AND_TIME_ASSIGNMENT ( #217, #44, ( #41 ) ) ;
#82 = CARTESIAN_POINT ( 'NONE',  ( 0.000000000000000000, 0.000000000000000000, 0.000000000000000000 ) ) ;
#83 = VECTOR ( 'NONE', #95, 1000.000000000000000 ) ;
#84 = CARTESIAN_POINT ( 'NONE',  ( -6.000000000000000888, 0.000000000000000000, 507.0000000000000000 ) ) ;
#85 = PERSON_AND_ORGANIZATION ( #26, #25 ) ;
#86 = CC_DESIGN_PERSON_AND_ORGANIZATION_ASSIGNMENT ( #184, #94, ( #60 ) ) ;
#87 = AXIS2_PLACEMENT_3D ( 'NONE', #108, #53, #175 ) ;
#88 = PLANE ( 'NONE',  #128 ) ;
#89 = LINE ( 'NONE', #110, #213 ) ;
#90 = PERSON_AND_ORGANIZATION ( #26, #25 ) ;
#91 = APPROVAL_STATUS ( 'not_yet_approved' ) ;
#92 = EDGE_CURVE ( 'NONE', #212, #232, #89, .T. ) ;
#93 = DIRECTION ( 'NONE',  ( 0.000000000000000000, 0.000000000000000000, 1.000000000000000000 ) ) ;
#94 = PERSON_AND_ORGANIZATION_ROLE ( 'classification_officer' ) ;
#95 = DIRECTION ( 'NONE',  ( -0.000000000000000000, -0.000000000000000000, -1.000000000000000000 ) ) ;
#96 = EDGE_LOOP ( 'NONE', ( #135, #155, #230, #57 ) ) ;
#97 = EDGE_LOOP ( 'NONE', ( #216, #255, #208, #194 ) ) ;
#98 = EDGE_CURVE ( 'NONE', #253, #76, #43, .T. ) ;
#99 = CC_DESIGN_APPROVAL ( #182, ( #60 ) ) ;
#100 = EDGE_CURVE ( 'NONE', #76, #36, #148, .T. ) ;
#101 = CARTESIAN_POINT ( 'NONE',  ( 0.000000000000000000, 0.000000000000000000, 507.0000000000000000 ) ) ;
#102 =( NAMED_UNIT ( * ) SI_UNIT ( $, .STERADIAN. ) SOLID_ANGLE_UNIT ( ) );
#103 = AXIS2_PLACEMENT_3D ( 'NONE', #73, #132, #107 ) ;
#104 = FACE_OUTER_BOUND ( 'NONE', #22, .T. ) ;
#105 = APPROVAL_ROLE ( '' ) ;
#106 = DIRECTION ( 'NONE',  ( -0.000000000000000000, -0.000000000000000000, -1.000000000000000000 ) ) ;
#107 = DIRECTION ( 'NONE',  ( -1.000000000000000000, 0.000000000000000000, 0.000000000000000000 ) ) ;
#108 = CARTESIAN_POINT ( 'NONE',  ( 0.000000000000000000, 0.000000000000000000, 0.000000000000000000 ) ) ;
#109 = DESIGN_CONTEXT ( 'detailed design', #5, 'design' ) ;
#110 = CARTESIAN_POINT ( 'NONE',  ( 9.000000000000000000, 1.102182119232617714E-15, 7.000000000000000000 ) ) ;
#111 = VERTEX_POINT ( 'NONE', #162 ) ;
#112 = ORIENTED_EDGE ( 'NONE', *, *, #100, .T. ) ;
#113 = AXIS2_PLACEMENT_3D ( 'NONE', #117, #106, #180 ) ;
#114 = DIRECTION ( 'NONE',  ( 0.000000000000000000, 0.000000000000000000, 1.000000000000000000 ) ) ;
#115 = EDGE_CURVE ( 'NONE', #152, #212, #238, .T. ) ;
#116 = ADVANCED_FACE ( 'NONE', ( #245 ), #88, .T. ) ;
#117 = CARTESIAN_POINT ( 'NONE',  ( 0.000000000000000000, 0.000000000000000000, 507.0000000000000000 ) ) ;
#118 = CC_DESIGN_PERSON_AND_ORGANIZATION_ASSIGNMENT ( #62, #10, ( #41 ) ) ;
#119 = PERSON_AND_ORGANIZATION ( #26, #25 ) ;
#120 = CC_DESIGN_APPROVAL ( #2, ( #67 ) ) ;
#121 = CC_DESIGN_APPROVAL ( #6, ( #41 ) ) ;
#122 = DIRECTION ( 'NONE',  ( 0.000000000000000000, 0.000000000000000000, 1.000000000000000000 ) ) ;
#123 = APPROVAL_DATE_TIME ( #35, #182 ) ;
#124 = APPLICATION_PROTOCOL_DEFINITION ( 'international standard', 'config_control_design', 1994, #3 ) ;
#125 = DIRECTION ( 'NONE',  ( 1.000000000000000000, 0.000000000000000000, 0.000000000000000000 ) ) ;
#126 = CALENDAR_DATE ( 2022, 7, 7 ) ;
#127 = CARTESIAN_POINT ( 'NONE',  ( 0.000000000000000000, 0.000000000000000000, 7.000000000000000000 ) ) ;
#128 = AXIS2_PLACEMENT_3D ( 'NONE', #101, #93, #168 ) ;
#129 = CARTESIAN_POINT ( 'NONE',  ( 0.000000000000000000, 0.000000000000000000, 7.000000000000000000 ) ) ;
#130 = DATE_TIME_ROLE ( 'classification_date' ) ;
#131 = ORIENTED_EDGE ( 'NONE', *, *, #235, .F. ) ;
#132 = DIRECTION ( 'NONE',  ( -0.000000000000000000, -0.000000000000000000, -1.000000000000000000 ) ) ;
#133 = COORDINATED_UNIVERSAL_TIME_OFFSET ( 1, 0, .AHEAD. ) ;
#134 = VERTEX_POINT ( 'NONE', #71 ) ;
#135 = ORIENTED_EDGE ( 'NONE', *, *, #92, .F. ) ;
#136 = CIRCLE ( 'NONE', #199, 9.000000000000000000 ) ;
#137 = EDGE_CURVE ( 'NONE', #212, #152, #136, .T. ) ;
#138 = FACE_OUTER_BOUND ( 'NONE', #59, .T. ) ;
#139 = EDGE_CURVE ( 'NONE', #253, #134, #210, .T. ) ;
#140 = COORDINATED_UNIVERSAL_TIME_OFFSET ( 1, 0, .AHEAD. ) ;
#141 = DIRECTION ( 'NONE',  ( 1.000000000000000000, 0.000000000000000000, 0.000000000000000000 ) ) ;
#142 = CARTESIAN_POINT ( 'NONE',  ( -9.000000000000000000, 0.000000000000000000, 7.000000000000000000 ) ) ;
#143 = PERSON_AND_ORGANIZATION ( #26, #25 ) ;
#144 = DIRECTION ( 'NONE',  ( 1.000000000000000000, 0.000000000000000000, 0.000000000000000000 ) ) ;
#145 = CIRCLE ( 'NONE', #231, 6.000000000000000888 ) ;
#146 = CARTESIAN_POINT ( 'NONE',  ( 0.000000000000000000, 0.000000000000000000, 7.000000000000000000 ) ) ;
#147 = DATE_AND_TIME ( #167, #159 ) ;
#148 = LINE ( 'NONE', #187, #64 ) ;
#149 = DIRECTION ( 'NONE',  ( 1.000000000000000000, 0.000000000000000000, 0.000000000000000000 ) ) ;
#150 = ORIENTED_EDGE ( 'NONE', *, *, #164, .F. ) ;
#151 = DIRECTION ( 'NONE',  ( 1.000000000000000000, 0.000000000000000000, 0.000000000000000000 ) ) ;
#152 = VERTEX_POINT ( 'NONE', #28 ) ;
#153 = CC_DESIGN_PERSON_AND_ORGANIZATION_ASSIGNMENT ( #29, #185, ( #1 ) ) ;
#154 = EDGE_LOOP ( 'NONE', ( #233, #150 ) ) ;
#155 = ORIENTED_EDGE ( 'NONE', *, *, #115, .F. ) ;
#156 = LOCAL_TIME ( 19, 19, 20.00000000000000000, #133 ) ;
#157 = PRODUCT_RELATED_PRODUCT_CATEGORY ( 'detail', '', ( #1 ) ) ;
#158 = EDGE_CURVE ( 'NONE', #152, #111, #34, .T. ) ;
#159 = LOCAL_TIME ( 19, 19, 20.00000000000000000, #70 ) ;
#160 = CYLINDRICAL_SURFACE ( 'NONE', #170, 6.000000000000000888 ) ;
#161 = CYLINDRICAL_SURFACE ( 'NONE', #197, 9.000000000000000000 ) ;
#162 = CARTESIAN_POINT ( 'NONE',  ( -9.000000000000000000, 0.000000000000000000, 0.000000000000000000 ) ) ;
#163 = MECHANICAL_CONTEXT ( 'NONE', #3, 'mechanical' ) ;
#164 = EDGE_CURVE ( 'NONE', #36, #134, #145, .T. ) ;
#165 = DIRECTION ( 'NONE',  ( -0.000000000000000000, -0.000000000000000000, -1.000000000000000000 ) ) ;
#166 = APPROVAL_STATUS ( 'not_yet_approved' ) ;
#167 = CALENDAR_DATE ( 2022, 7, 7 ) ;
#168 = DIRECTION ( 'NONE',  ( 1.000000000000000000, 0.000000000000000000, -0.000000000000000000 ) ) ;
#169 = CALENDAR_DATE ( 2022, 7, 7 ) ;
#170 = AXIS2_PLACEMENT_3D ( 'NONE', #51, #223, #203 ) ;
#171 = CARTESIAN_POINT ( 'NONE',  ( 0.000000000000000000, 0.000000000000000000, 7.000000000000000000 ) ) ;
#172 = ORIENTED_EDGE ( 'NONE', *, *, #178, .T. ) ;
#173 = ADVANCED_FACE ( 'NONE', ( #204, #65 ), #45, .T. ) ;
#174 = ORIENTED_EDGE ( 'NONE', *, *, #98, .F. ) ;
#175 = DIRECTION ( 'NONE',  ( 1.000000000000000000, 0.000000000000000000, 0.000000000000000000 ) ) ;
#176 = AXIS2_PLACEMENT_3D ( 'NONE', #14, #226, #149 ) ;
#177 = ADVANCED_BREP_SHAPE_REPRESENTATION ( '21d7', ( #198, #40 ), #219 ) ;
#178 = EDGE_CURVE ( 'NONE', #134, #36, #38, .T. ) ;
#179 = LOCAL_TIME ( 19, 19, 20.00000000000000000, #140 ) ;
#180 = DIRECTION ( 'NONE',  ( -1.000000000000000000, 0.000000000000000000, 0.000000000000000000 ) ) ;
#181 = FACE_OUTER_BOUND ( 'NONE', #96, .T. ) ;
#182 = APPROVAL ( #46, 'NEURÈENÝ' ) ;
#183 = FACE_OUTER_BOUND ( 'NONE', #79, .T. ) ;
#184 = PERSON_AND_ORGANIZATION ( #26, #25 ) ;
#185 = PERSON_AND_ORGANIZATION_ROLE ( 'design_owner' ) ;
#186 = APPROVAL_PERSON_ORGANIZATION ( #119, #2, #105 ) ;
#187 = CARTESIAN_POINT ( 'NONE',  ( 6.000000000000000888, 7.347880794884120722E-16, 507.0000000000000000 ) ) ;
#188 = COORDINATED_UNIVERSAL_TIME_OFFSET ( 1, 0, .AHEAD. ) ;
#189 = ORIENTED_EDGE ( 'NONE', *, *, #68, .F. ) ;
#190 = DIRECTION ( 'NONE',  ( 0.000000000000000000, 0.000000000000000000, 1.000000000000000000 ) ) ;
#191 = APPROVAL_ROLE ( '' ) ;
#192 = ORIENTED_EDGE ( 'NONE', *, *, #137, .T. ) ;
#193 = AXIS2_PLACEMENT_3D ( 'NONE', #229, #190, #69 ) ;
#194 = ORIENTED_EDGE ( 'NONE', *, *, #158, .F. ) ;
#195 = DIRECTION ( 'NONE',  ( 1.000000000000000000, 0.000000000000000000, -0.000000000000000000 ) ) ;
#196 = ADVANCED_FACE ( 'NONE', ( #104 ), #32, .T. ) ;
#197 = AXIS2_PLACEMENT_3D ( 'NONE', #127, #27, #12 ) ;
#198 = MANIFOLD_SOLID_BREP ( 'Pøidat vysunutím3', #21 ) ;
#199 = AXIS2_PLACEMENT_3D ( 'NONE', #129, #206, #251 ) ;
#200 = AXIS2_PLACEMENT_3D ( 'NONE', #146, #48, #31 ) ;
#201 = LOCAL_TIME ( 19, 19, 20.00000000000000000, #227 ) ;
#202 = CARTESIAN_POINT ( 'NONE',  ( 9.000000000000000000, 1.102182119232617714E-15, 0.000000000000000000 ) ) ;
#203 = DIRECTION ( 'NONE',  ( -1.000000000000000000, 0.000000000000000000, 0.000000000000000000 ) ) ;
#204 = FACE_BOUND ( 'NONE', #154, .T. ) ;
#205 = VECTOR ( 'NONE', #18, 1000.000000000000000 ) ;
#206 = DIRECTION ( 'NONE',  ( 0.000000000000000000, 0.000000000000000000, 1.000000000000000000 ) ) ;
#207 = PERSON_AND_ORGANIZATION_ROLE ( 'design_supplier' ) ;
#208 = ORIENTED_EDGE ( 'NONE', *, *, #235, .T. ) ;
#209 = CC_DESIGN_PERSON_AND_ORGANIZATION_ASSIGNMENT ( #143, #207, ( #67 ) ) ;
#210 = LINE ( 'NONE', #37, #205 ) ;
#211 = ORIENTED_EDGE ( 'NONE', *, *, #164, .T. ) ;
#212 = VERTEX_POINT ( 'NONE', #247 ) ;
#213 = VECTOR ( 'NONE', #165, 1000.000000000000000 ) ;
#214 = PLANE ( 'NONE',  #7 ) ;
#215 = AXIS2_PLACEMENT_3D ( 'NONE', #82, #222, #141 ) ;
#216 = ORIENTED_EDGE ( 'NONE', *, *, #137, .F. ) ;
#217 = DATE_AND_TIME ( #218, #179 ) ;
#218 = CALENDAR_DATE ( 2022, 7, 7 ) ;
#219 =( GEOMETRIC_REPRESENTATION_CONTEXT ( 3 ) GLOBAL_UNCERTAINTY_ASSIGNED_CONTEXT ( ( #78 ) ) GLOBAL_UNIT_ASSIGNED_CONTEXT ( ( #72, #241, #102 ) ) REPRESENTATION_CONTEXT ( 'NONE', 'WORKASPACE' ) );
#220 = CARTESIAN_POINT ( 'NONE',  ( 0.000000000000000000, 0.000000000000000000, 7.000000000000000000 ) ) ;
#221 = SECURITY_CLASSIFICATION_LEVEL ( 'unclassified' ) ;
#222 = DIRECTION ( 'NONE',  ( 0.000000000000000000, 0.000000000000000000, 1.000000000000000000 ) ) ;
#223 = DIRECTION ( 'NONE',  ( -0.000000000000000000, -0.000000000000000000, -1.000000000000000000 ) ) ;
#224 = APPROVAL_DATE_TIME ( #147, #6 ) ;
#225 = PRODUCT_DEFINITION_SHAPE ( 'NONE', 'NONE',  #41 ) ;
#226 = DIRECTION ( 'NONE',  ( 0.000000000000000000, 0.000000000000000000, 1.000000000000000000 ) ) ;
#227 = COORDINATED_UNIVERSAL_TIME_OFFSET ( 1, 0, .AHEAD. ) ;
#228 = ORIENTED_EDGE ( 'NONE', *, *, #24, .F. ) ;
#229 = CARTESIAN_POINT ( 'NONE',  ( 0.000000000000000000, 0.000000000000000000, 507.0000000000000000 ) ) ;
#230 = ORIENTED_EDGE ( 'NONE', *, *, #158, .T. ) ;
#231 = AXIS2_PLACEMENT_3D ( 'NONE', #171, #75, #151 ) ;
#232 = VERTEX_POINT ( 'NONE', #202 ) ;
#233 = ORIENTED_EDGE ( 'NONE', *, *, #178, .F. ) ;
#234 = CARTESIAN_POINT ( 'NONE',  ( 6.000000000000000888, 7.347880794884120722E-16, 7.000000000000000000 ) ) ;
#235 = EDGE_CURVE ( 'NONE', #232, #111, #242, .T. ) ;
#236 = AXIS2_PLACEMENT_3D ( 'NONE', #220, #239, #125 ) ;
#237 = APPLICATION_PROTOCOL_DEFINITION ( 'international standard', 'config_control_design', 1994, #5 ) ;
#238 = CIRCLE ( 'NONE', #236, 9.000000000000000000 ) ;
#239 = DIRECTION ( 'NONE',  ( 0.000000000000000000, 0.000000000000000000, 1.000000000000000000 ) ) ;
#240 = PERSON_AND_ORGANIZATION ( #26, #25 ) ;
#241 =( NAMED_UNIT ( * ) PLANE_ANGLE_UNIT ( ) SI_UNIT ( $, .RADIAN. ) );
#242 = CIRCLE ( 'NONE', #215, 9.000000000000000000 ) ;
#243 = CC_DESIGN_SECURITY_CLASSIFICATION ( #60, ( #67 ) ) ;
#244 = DIRECTION ( 'NONE',  ( 1.000000000000000000, 0.000000000000000000, -0.000000000000000000 ) ) ;
#245 = FACE_OUTER_BOUND ( 'NONE', #20, .T. ) ;
#246 = DATE_AND_TIME ( #9, #201 ) ;
#247 = CARTESIAN_POINT ( 'NONE',  ( 9.000000000000000000, 1.102182119232617714E-15, 7.000000000000000000 ) ) ;
#248 = CYLINDRICAL_SURFACE ( 'NONE', #103, 9.000000000000000000 ) ;
#249 = SHAPE_DEFINITION_REPRESENTATION ( #225, #177 ) ;
#250 = ORIENTED_EDGE ( 'NONE', *, *, #115, .T. ) ;
#251 = DIRECTION ( 'NONE',  ( 1.000000000000000000, 0.000000000000000000, 0.000000000000000000 ) ) ;
#252 = ORIENTED_EDGE ( 'NONE', *, *, #100, .F. ) ;
#253 = VERTEX_POINT ( 'NONE', #84 ) ;
#254 = ADVANCED_FACE ( 'NONE', ( #49 ), #161, .T. ) ;
#255 = ORIENTED_EDGE ( 'NONE', *, *, #92, .T. ) ;
ENDSEC;
END-ISO-10303-21;
