ISO-10303-21;
HEADER;
FILE_DESCRIPTION (( 'STEP AP203' ),
    '1' );
FILE_NAME ('30ba.STEP',
    '2022-07-07T17:52:15',
    ( '' ),
    ( '' ),
    'SwSTEP 2.0',
    'SolidWorks 2019',
    '' );
FILE_SCHEMA (( 'CONFIG_CONTROL_DESIGN' ));
ENDSEC;

DATA;
#1 = ORIENTED_EDGE ( 'NONE', *, *, #68, .T. ) ;
#2 = APPROVAL_DATE_TIME ( #240, #135 ) ;
#3 = AXIS2_PLACEMENT_3D ( 'NONE', #252, #126, #190 ) ;
#4 = PERSON_AND_ORGANIZATION ( #20, #91 ) ;
#5 = CALENDAR_DATE ( 2022, 7, 7 ) ;
#6 = EDGE_CURVE ( 'NONE', #170, #229, #146, .T. ) ;
#7 = AXIS2_PLACEMENT_3D ( 'NONE', #35, #89, #188 ) ;
#8 = PRODUCT_DEFINITION_FORMATION_WITH_SPECIFIED_SOURCE ( 'LIBOVOLNÝ', '', #227, .NOT_KNOWN. ) ;
#9 = EDGE_CURVE ( 'NONE', #246, #239, #100, .T. ) ;
#10 = AXIS2_PLACEMENT_3D ( 'NONE', #212, #109, #230 ) ;
#11 = ORIENTED_EDGE ( 'NONE', *, *, #245, .T. ) ;
#12 = DIRECTION ( 'NONE',  ( -1.000000000000000000, 0.000000000000000000, 0.000000000000000000 ) ) ;
#13 = PRODUCT_DEFINITION ( 'NEZNÁMÝ', '', #8, #223 ) ;
#14 = DIRECTION ( 'NONE',  ( 0.000000000000000000, 0.000000000000000000, 1.000000000000000000 ) ) ;
#15 = CARTESIAN_POINT ( 'NONE',  ( 0.000000000000000000, 0.000000000000000000, 3.000000000000000000 ) ) ;
#16 = DIRECTION ( 'NONE',  ( -0.000000000000000000, -0.000000000000000000, -1.000000000000000000 ) ) ;
#17 = CC_DESIGN_APPROVAL ( #135, ( #13 ) ) ;
#18 = CARTESIAN_POINT ( 'NONE',  ( 4.000000000000000000, 4.898587196589412829E-16, 0.000000000000000000 ) ) ;
#19 = PERSON_AND_ORGANIZATION_ROLE ( 'classification_officer' ) ;
#20 = PERSON ( 'NEURÈENÝ', 'NEURÈENÝ', 'NEURÈENÝ', ('NEURÈENÝ'), ('NEURÈENÝ'), ('NEURÈENÝ') ) ;
#21 = CARTESIAN_POINT ( 'NONE',  ( 2.000000000000000000, 2.449293598294706414E-16, 128.0000000000000000 ) ) ;
#22 = DATE_AND_TIME ( #5, #147 ) ;
#23 = CARTESIAN_POINT ( 'NONE',  ( 0.000000000000000000, 0.000000000000000000, 0.000000000000000000 ) ) ;
#24 = AXIS2_PLACEMENT_3D ( 'NONE', #207, #111, #193 ) ;
#25 = PERSON_AND_ORGANIZATION ( #20, #91 ) ;
#26 = APPROVAL_STATUS ( 'not_yet_approved' ) ;
#27 = CC_DESIGN_PERSON_AND_ORGANIZATION_ASSIGNMENT ( #238, #41, ( #8 ) ) ;
#28 = CIRCLE ( 'NONE', #103, 4.000000000000000000 ) ;
#29 = ADVANCED_BREP_SHAPE_REPRESENTATION ( '30ba', ( #241, #186 ), #115 ) ;
#30 = EDGE_LOOP ( 'NONE', ( #247, #53, #112, #184 ) ) ;
#31 =( NAMED_UNIT ( * ) PLANE_ANGLE_UNIT ( ) SI_UNIT ( $, .RADIAN. ) );
#32 = CARTESIAN_POINT ( 'NONE',  ( 0.000000000000000000, 0.000000000000000000, 3.000000000000000000 ) ) ;
#33 = EDGE_LOOP ( 'NONE', ( #122, #194, #1, #128 ) ) ;
#34 = VERTEX_POINT ( 'NONE', #18 ) ;
#35 = CARTESIAN_POINT ( 'NONE',  ( 0.000000000000000000, 0.000000000000000000, 0.000000000000000000 ) ) ;
#36 = FACE_OUTER_BOUND ( 'NONE', #166, .T. ) ;
#37 = CARTESIAN_POINT ( 'NONE',  ( 0.000000000000000000, 0.000000000000000000, 128.0000000000000000 ) ) ;
#38 = CARTESIAN_POINT ( 'NONE',  ( 0.000000000000000000, 0.000000000000000000, 3.000000000000000000 ) ) ;
#39 = LOCAL_TIME ( 19, 52, 15.00000000000000000, #243 ) ;
#40 = CARTESIAN_POINT ( 'NONE',  ( 0.000000000000000000, 0.000000000000000000, 0.000000000000000000 ) ) ;
#41 = PERSON_AND_ORGANIZATION_ROLE ( 'design_supplier' ) ;
#42 = CALENDAR_DATE ( 2022, 7, 7 ) ;
#43 = AXIS2_PLACEMENT_3D ( 'NONE', #209, #57, #154 ) ;
#44 = PERSON_AND_ORGANIZATION ( #20, #91 ) ;
#45 = EDGE_CURVE ( 'NONE', #239, #104, #55, .T. ) ;
#46 = VECTOR ( 'NONE', #16, 1000.000000000000000 ) ;
#47 = EDGE_LOOP ( 'NONE', ( #102, #90 ) ) ;
#48 = EDGE_CURVE ( 'NONE', #229, #34, #189, .T. ) ;
#49 = CARTESIAN_POINT ( 'NONE',  ( -4.000000000000000000, 0.000000000000000000, 0.000000000000000000 ) ) ;
#50 = ORIENTED_EDGE ( 'NONE', *, *, #116, .F. ) ;
#51 = CARTESIAN_POINT ( 'NONE',  ( 2.000000000000000000, 2.449293598294706414E-16, 128.0000000000000000 ) ) ;
#52 = ORIENTED_EDGE ( 'NONE', *, *, #80, .F. ) ;
#53 = ORIENTED_EDGE ( 'NONE', *, *, #245, .F. ) ;
#54 = DIRECTION ( 'NONE',  ( 1.000000000000000000, 0.000000000000000000, 0.000000000000000000 ) ) ;
#55 = LINE ( 'NONE', #237, #83 ) ;
#56 = DIRECTION ( 'NONE',  ( 0.000000000000000000, 0.000000000000000000, 1.000000000000000000 ) ) ;
#57 = DIRECTION ( 'NONE',  ( 0.000000000000000000, 0.000000000000000000, 1.000000000000000000 ) ) ;
#58 = APPROVAL_ROLE ( '' ) ;
#59 = AXIS2_PLACEMENT_3D ( 'NONE', #15, #87, #253 ) ;
#60 = CC_DESIGN_APPROVAL ( #177, ( #160 ) ) ;
#61 = DIRECTION ( 'NONE',  ( -0.000000000000000000, -0.000000000000000000, -1.000000000000000000 ) ) ;
#62 = CALENDAR_DATE ( 2022, 7, 7 ) ;
#63 = EDGE_CURVE ( 'NONE', #246, #235, #74, .T. ) ;
#64 = PERSON_AND_ORGANIZATION_ROLE ( 'creator' ) ;
#65 = CALENDAR_DATE ( 2022, 7, 7 ) ;
#66 = AXIS2_PLACEMENT_3D ( 'NONE', #152, #130, #250 ) ;
#67 = APPROVAL_PERSON_ORGANIZATION ( #25, #177, #158 ) ;
#68 = EDGE_CURVE ( 'NONE', #170, #233, #143, .T. ) ;
#69 = EDGE_LOOP ( 'NONE', ( #50, #52 ) ) ;
#70 = CARTESIAN_POINT ( 'NONE',  ( 4.000000000000000000, 4.898587196589412829E-16, 3.000000000000000000 ) ) ;
#71 = FACE_BOUND ( 'NONE', #205, .T. ) ;
#72 = AXIS2_PLACEMENT_3D ( 'NONE', #251, #249, #142 ) ;
#73 = DIRECTION ( 'NONE',  ( 1.000000000000000000, 0.000000000000000000, 0.000000000000000000 ) ) ;
#74 = LINE ( 'NONE', #21, #159 ) ;
#75 = CARTESIAN_POINT ( 'NONE',  ( -2.000000000000000000, 0.000000000000000000, 128.0000000000000000 ) ) ;
#76 = ORIENTED_EDGE ( 'NONE', *, *, #80, .T. ) ;
#77 = DATE_AND_TIME ( #65, #39 ) ;
#78 = CARTESIAN_POINT ( 'NONE',  ( -2.000000000000000000, 0.000000000000000000, 3.000000000000000000 ) ) ;
#79 = COORDINATED_UNIVERSAL_TIME_OFFSET ( 1, 0, .AHEAD. ) ;
#80 = EDGE_CURVE ( 'NONE', #34, #233, #28, .T. ) ;
#81 = PERSON_AND_ORGANIZATION ( #20, #91 ) ;
#82 = DATE_AND_TIME ( #62, #222 ) ;
#83 = VECTOR ( 'NONE', #61, 1000.000000000000000 ) ;
#84 = ADVANCED_FACE ( 'NONE', ( #214 ), #196, .T. ) ;
#85 = APPLICATION_CONTEXT ( 'configuration controlled 3d designs of mechanical parts and assemblies' ) ;
#86 = CYLINDRICAL_SURFACE ( 'NONE', #180, 2.000000000000000000 ) ;
#87 = DIRECTION ( 'NONE',  ( -0.000000000000000000, -0.000000000000000000, -1.000000000000000000 ) ) ;
#88 = FACE_OUTER_BOUND ( 'NONE', #33, .T. ) ;
#89 = DIRECTION ( 'NONE',  ( 0.000000000000000000, 0.000000000000000000, 1.000000000000000000 ) ) ;
#90 = ORIENTED_EDGE ( 'NONE', *, *, #203, .T. ) ;
#91 = ORGANIZATION ( 'NEURÈENÝ', 'NEURÈENÝ', '' ) ;
#92 = DIRECTION ( 'NONE',  ( 0.000000000000000000, 0.000000000000000000, 1.000000000000000000 ) ) ;
#93 = ORIENTED_EDGE ( 'NONE', *, *, #182, .F. ) ;
#94 = CARTESIAN_POINT ( 'NONE',  ( 0.000000000000000000, 0.000000000000000000, 128.0000000000000000 ) ) ;
#95 = PERSON_AND_ORGANIZATION ( #20, #91 ) ;
#96 = ADVANCED_FACE ( 'NONE', ( #88 ), #145, .T. ) ;
#97 = DATE_TIME_ROLE ( 'creation_date' ) ;
#98 = AXIS2_PLACEMENT_3D ( 'NONE', #32, #56, #228 ) ;
#99 = DIRECTION ( 'NONE',  ( 1.000000000000000000, 0.000000000000000000, 0.000000000000000000 ) ) ;
#100 = CIRCLE ( 'NONE', #43, 2.000000000000000000 ) ;
#101 = CIRCLE ( 'NONE', #10, 4.000000000000000000 ) ;
#102 = ORIENTED_EDGE ( 'NONE', *, *, #6, .T. ) ;
#103 = AXIS2_PLACEMENT_3D ( 'NONE', #40, #14, #117 ) ;
#104 = VERTEX_POINT ( 'NONE', #78 ) ;
#105 = CARTESIAN_POINT ( 'NONE',  ( 2.000000000000000000, 2.449293598294706414E-16, 3.000000000000000000 ) ) ;
#106 = ORIENTED_EDGE ( 'NONE', *, *, #45, .F. ) ;
#107 = CC_DESIGN_DATE_AND_TIME_ASSIGNMENT ( #200, #155, ( #160 ) ) ;
#108 = PLANE ( 'NONE',  #7 ) ;
#109 = DIRECTION ( 'NONE',  ( 0.000000000000000000, 0.000000000000000000, 1.000000000000000000 ) ) ;
#110 = ORIENTED_EDGE ( 'NONE', *, *, #9, .T. ) ;
#111 = DIRECTION ( 'NONE',  ( 0.000000000000000000, 0.000000000000000000, 1.000000000000000000 ) ) ;
#112 = ORIENTED_EDGE ( 'NONE', *, *, #45, .T. ) ;
#113 = COORDINATED_UNIVERSAL_TIME_OFFSET ( 1, 0, .AHEAD. ) ;
#114 = AXIS2_PLACEMENT_3D ( 'NONE', #38, #127, #231 ) ;
#115 =( GEOMETRIC_REPRESENTATION_CONTEXT ( 3 ) GLOBAL_UNCERTAINTY_ASSIGNED_CONTEXT ( ( #187 ) ) GLOBAL_UNIT_ASSIGNED_CONTEXT ( ( #171, #31, #144 ) ) REPRESENTATION_CONTEXT ( 'NONE', 'WORKASPACE' ) );
#116 = EDGE_CURVE ( 'NONE', #233, #34, #101, .T. ) ;
#117 = DIRECTION ( 'NONE',  ( 1.000000000000000000, 0.000000000000000000, 0.000000000000000000 ) ) ;
#118 = MECHANICAL_CONTEXT ( 'NONE', #161, 'mechanical' ) ;
#119 = CIRCLE ( 'NONE', #72, 4.000000000000000000 ) ;
#120 = APPROVAL_DATE_TIME ( #77, #177 ) ;
#121 = FACE_OUTER_BOUND ( 'NONE', #254, .T. ) ;
#122 = ORIENTED_EDGE ( 'NONE', *, *, #48, .F. ) ;
#123 = PRODUCT_RELATED_PRODUCT_CATEGORY ( 'detail', '', ( #227 ) ) ;
#124 = AXIS2_PLACEMENT_3D ( 'NONE', #149, #234, #54 ) ;
#125 = APPROVAL_PERSON_ORGANIZATION ( #132, #221, #219 ) ;
#126 = DIRECTION ( 'NONE',  ( 0.000000000000000000, 0.000000000000000000, 1.000000000000000000 ) ) ;
#127 = DIRECTION ( 'NONE',  ( -0.000000000000000000, -0.000000000000000000, -1.000000000000000000 ) ) ;
#128 = ORIENTED_EDGE ( 'NONE', *, *, #116, .T. ) ;
#129 = FACE_OUTER_BOUND ( 'NONE', #47, .T. ) ;
#130 = DIRECTION ( 'NONE',  ( 0.000000000000000000, 0.000000000000000000, 1.000000000000000000 ) ) ;
#131 = DIRECTION ( 'NONE',  ( -0.000000000000000000, -0.000000000000000000, -1.000000000000000000 ) ) ;
#132 = PERSON_AND_ORGANIZATION ( #20, #91 ) ;
#133 = APPROVAL_DATE_TIME ( #82, #221 ) ;
#134 = DIRECTION ( 'NONE',  ( 0.000000000000000000, 0.000000000000000000, 1.000000000000000000 ) ) ;
#135 = APPROVAL ( #178, 'NEURÈENÝ' ) ;
#136 = ADVANCED_FACE ( 'NONE', ( #36 ), #191, .T. ) ;
#137 = PRODUCT_DEFINITION_SHAPE ( 'NONE', 'NONE',  #13 ) ;
#138 = CIRCLE ( 'NONE', #98, 2.000000000000000000 ) ;
#139 = LOCAL_TIME ( 19, 52, 15.00000000000000000, #175 ) ;
#140 = ORIENTED_EDGE ( 'NONE', *, *, #63, .T. ) ;
#141 = ADVANCED_FACE ( 'NONE', ( #121 ), #185, .T. ) ;
#142 = DIRECTION ( 'NONE',  ( 1.000000000000000000, 0.000000000000000000, 0.000000000000000000 ) ) ;
#143 = LINE ( 'NONE', #150, #195 ) ;
#144 =( NAMED_UNIT ( * ) SI_UNIT ( $, .STERADIAN. ) SOLID_ANGLE_UNIT ( ) );
#145 = CYLINDRICAL_SURFACE ( 'NONE', #114, 4.000000000000000000 ) ;
#146 = CIRCLE ( 'NONE', #66, 4.000000000000000000 ) ;
#147 = LOCAL_TIME ( 19, 52, 15.00000000000000000, #113 ) ;
#148 = ORIENTED_EDGE ( 'NONE', *, *, #182, .T. ) ;
#149 = CARTESIAN_POINT ( 'NONE',  ( 0.000000000000000000, 0.000000000000000000, 128.0000000000000000 ) ) ;
#150 = CARTESIAN_POINT ( 'NONE',  ( -4.000000000000000000, 0.000000000000000000, 3.000000000000000000 ) ) ;
#151 = FACE_OUTER_BOUND ( 'NONE', #172, .T. ) ;
#152 = CARTESIAN_POINT ( 'NONE',  ( 0.000000000000000000, 0.000000000000000000, 3.000000000000000000 ) ) ;
#153 = APPLICATION_PROTOCOL_DEFINITION ( 'international standard', 'config_control_design', 1994, #161 ) ;
#154 = DIRECTION ( 'NONE',  ( 1.000000000000000000, 0.000000000000000000, 0.000000000000000000 ) ) ;
#155 = DATE_TIME_ROLE ( 'classification_date' ) ;
#156 = PERSON_AND_ORGANIZATION ( #20, #91 ) ;
#157 = CC_DESIGN_PERSON_AND_ORGANIZATION_ASSIGNMENT ( #156, #216, ( #8 ) ) ;
#158 = APPROVAL_ROLE ( '' ) ;
#159 = VECTOR ( 'NONE', #131, 1000.000000000000000 ) ;
#160 = SECURITY_CLASSIFICATION ( '', '', #242 ) ;
#161 = APPLICATION_CONTEXT ( 'configuration controlled 3d designs of mechanical parts and assemblies' ) ;
#162 = CLOSED_SHELL ( 'NONE', ( #199, #141, #96, #248, #183, #84, #136 ) ) ;
#163 = ORIENTED_EDGE ( 'NONE', *, *, #226, .F. ) ;
#164 = CARTESIAN_POINT ( 'NONE',  ( 0.000000000000000000, 0.000000000000000000, 3.000000000000000000 ) ) ;
#165 = FACE_OUTER_BOUND ( 'NONE', #69, .T. ) ;
#166 = EDGE_LOOP ( 'NONE', ( #11, #110 ) ) ;
#167 = DIRECTION ( 'NONE',  ( -0.000000000000000000, -0.000000000000000000, -1.000000000000000000 ) ) ;
#168 = CC_DESIGN_PERSON_AND_ORGANIZATION_ASSIGNMENT ( #81, #64, ( #13 ) ) ;
#169 = DIRECTION ( 'NONE',  ( -0.000000000000000000, -0.000000000000000000, -1.000000000000000000 ) ) ;
#170 = VERTEX_POINT ( 'NONE', #236 ) ;
#171 =( LENGTH_UNIT ( ) NAMED_UNIT ( * ) SI_UNIT ( .MILLI., .METRE. ) );
#172 = EDGE_LOOP ( 'NONE', ( #210, #140, #148, #106 ) ) ;
#173 = PERSON_AND_ORGANIZATION_ROLE ( 'design_owner' ) ;
#174 = DIRECTION ( 'NONE',  ( -1.000000000000000000, 0.000000000000000000, 0.000000000000000000 ) ) ;
#175 = COORDINATED_UNIVERSAL_TIME_OFFSET ( 1, 0, .AHEAD. ) ;
#176 = AXIS2_PLACEMENT_3D ( 'NONE', #164, #92, #73 ) ;
#177 = APPROVAL ( #218, 'NEURÈENÝ' ) ;
#178 = APPROVAL_STATUS ( 'not_yet_approved' ) ;
#179 = CC_DESIGN_PERSON_AND_ORGANIZATION_ASSIGNMENT ( #4, #173, ( #227 ) ) ;
#180 = AXIS2_PLACEMENT_3D ( 'NONE', #37, #167, #12 ) ;
#181 = CC_DESIGN_SECURITY_CLASSIFICATION ( #160, ( #8 ) ) ;
#182 = EDGE_CURVE ( 'NONE', #235, #104, #217, .T. ) ;
#183 = ADVANCED_FACE ( 'NONE', ( #165 ), #108, .F. ) ;
#184 = ORIENTED_EDGE ( 'NONE', *, *, #226, .T. ) ;
#185 = CYLINDRICAL_SURFACE ( 'NONE', #59, 4.000000000000000000 ) ;
#186 = AXIS2_PLACEMENT_3D ( 'NONE', #23, #134, #99 ) ;
#187 = UNCERTAINTY_MEASURE_WITH_UNIT (LENGTH_MEASURE( 1.000000000000000082E-05 ), #171, 'distance_accuracy_value', 'NONE');
#188 = DIRECTION ( 'NONE',  ( 1.000000000000000000, 0.000000000000000000, -0.000000000000000000 ) ) ;
#189 = LINE ( 'NONE', #70, #46 ) ;
#190 = DIRECTION ( 'NONE',  ( 1.000000000000000000, 0.000000000000000000, -0.000000000000000000 ) ) ;
#191 = PLANE ( 'NONE',  #3 ) ;
#192 = ORIENTED_EDGE ( 'NONE', *, *, #203, .F. ) ;
#193 = DIRECTION ( 'NONE',  ( 1.000000000000000000, 0.000000000000000000, -0.000000000000000000 ) ) ;
#194 = ORIENTED_EDGE ( 'NONE', *, *, #6, .F. ) ;
#195 = VECTOR ( 'NONE', #215, 1000.000000000000000 ) ;
#196 = CYLINDRICAL_SURFACE ( 'NONE', #244, 2.000000000000000000 ) ;
#197 = CALENDAR_DATE ( 2022, 7, 7 ) ;
#198 = COORDINATED_UNIVERSAL_TIME_OFFSET ( 1, 0, .AHEAD. ) ;
#199 = ADVANCED_FACE ( 'NONE', ( #151 ), #86, .T. ) ;
#200 = DATE_AND_TIME ( #42, #208 ) ;
#201 = SHAPE_DEFINITION_REPRESENTATION ( #137, #29 ) ;
#202 = ORIENTED_EDGE ( 'NONE', *, *, #68, .F. ) ;
#203 = EDGE_CURVE ( 'NONE', #229, #170, #119, .T. ) ;
#204 = APPROVAL_PERSON_ORGANIZATION ( #44, #135, #58 ) ;
#205 = EDGE_LOOP ( 'NONE', ( #163, #93 ) ) ;
#206 = ORIENTED_EDGE ( 'NONE', *, *, #48, .T. ) ;
#207 = CARTESIAN_POINT ( 'NONE',  ( 0.000000000000000000, 0.000000000000000000, 3.000000000000000000 ) ) ;
#208 = LOCAL_TIME ( 19, 52, 15.00000000000000000, #79 ) ;
#209 = CARTESIAN_POINT ( 'NONE',  ( 0.000000000000000000, 0.000000000000000000, 128.0000000000000000 ) ) ;
#210 = ORIENTED_EDGE ( 'NONE', *, *, #9, .F. ) ;
#211 = CARTESIAN_POINT ( 'NONE',  ( 4.000000000000000000, 4.898587196589412829E-16, 3.000000000000000000 ) ) ;
#212 = CARTESIAN_POINT ( 'NONE',  ( 0.000000000000000000, 0.000000000000000000, 0.000000000000000000 ) ) ;
#213 = PLANE ( 'NONE',  #24 ) ;
#214 = FACE_OUTER_BOUND ( 'NONE', #30, .T. ) ;
#215 = DIRECTION ( 'NONE',  ( -0.000000000000000000, -0.000000000000000000, -1.000000000000000000 ) ) ;
#216 = PERSON_AND_ORGANIZATION_ROLE ( 'creator' ) ;
#217 = CIRCLE ( 'NONE', #176, 2.000000000000000000 ) ;
#218 = APPROVAL_STATUS ( 'not_yet_approved' ) ;
#219 = APPROVAL_ROLE ( '' ) ;
#220 = CIRCLE ( 'NONE', #124, 2.000000000000000000 ) ;
#221 = APPROVAL ( #26, 'NEURÈENÝ' ) ;
#222 = LOCAL_TIME ( 19, 52, 15.00000000000000000, #198 ) ;
#223 = DESIGN_CONTEXT ( 'detailed design', #85, 'design' ) ;
#224 = CC_DESIGN_APPROVAL ( #221, ( #8 ) ) ;
#225 = CC_DESIGN_DATE_AND_TIME_ASSIGNMENT ( #22, #97, ( #13 ) ) ;
#226 = EDGE_CURVE ( 'NONE', #104, #235, #138, .T. ) ;
#227 = PRODUCT ( '30ba', '30ba', '', ( #118 ) ) ;
#228 = DIRECTION ( 'NONE',  ( 1.000000000000000000, 0.000000000000000000, 0.000000000000000000 ) ) ;
#229 = VERTEX_POINT ( 'NONE', #211 ) ;
#230 = DIRECTION ( 'NONE',  ( 1.000000000000000000, 0.000000000000000000, 0.000000000000000000 ) ) ;
#231 = DIRECTION ( 'NONE',  ( -1.000000000000000000, 0.000000000000000000, 0.000000000000000000 ) ) ;
#232 = CC_DESIGN_PERSON_AND_ORGANIZATION_ASSIGNMENT ( #95, #19, ( #160 ) ) ;
#233 = VERTEX_POINT ( 'NONE', #49 ) ;
#234 = DIRECTION ( 'NONE',  ( 0.000000000000000000, 0.000000000000000000, 1.000000000000000000 ) ) ;
#235 = VERTEX_POINT ( 'NONE', #105 ) ;
#236 = CARTESIAN_POINT ( 'NONE',  ( -4.000000000000000000, 0.000000000000000000, 3.000000000000000000 ) ) ;
#237 = CARTESIAN_POINT ( 'NONE',  ( -2.000000000000000000, 0.000000000000000000, 128.0000000000000000 ) ) ;
#238 = PERSON_AND_ORGANIZATION ( #20, #91 ) ;
#239 = VERTEX_POINT ( 'NONE', #75 ) ;
#240 = DATE_AND_TIME ( #197, #139 ) ;
#241 = MANIFOLD_SOLID_BREP ( 'Pøidat vysunutím3', #162 ) ;
#242 = SECURITY_CLASSIFICATION_LEVEL ( 'unclassified' ) ;
#243 = COORDINATED_UNIVERSAL_TIME_OFFSET ( 1, 0, .AHEAD. ) ;
#244 = AXIS2_PLACEMENT_3D ( 'NONE', #94, #169, #174 ) ;
#245 = EDGE_CURVE ( 'NONE', #239, #246, #220, .T. ) ;
#246 = VERTEX_POINT ( 'NONE', #51 ) ;
#247 = ORIENTED_EDGE ( 'NONE', *, *, #63, .F. ) ;
#248 = ADVANCED_FACE ( 'NONE', ( #71, #129 ), #213, .T. ) ;
#249 = DIRECTION ( 'NONE',  ( 0.000000000000000000, 0.000000000000000000, 1.000000000000000000 ) ) ;
#250 = DIRECTION ( 'NONE',  ( 1.000000000000000000, 0.000000000000000000, 0.000000000000000000 ) ) ;
#251 = CARTESIAN_POINT ( 'NONE',  ( 0.000000000000000000, 0.000000000000000000, 3.000000000000000000 ) ) ;
#252 = CARTESIAN_POINT ( 'NONE',  ( 0.000000000000000000, 0.000000000000000000, 128.0000000000000000 ) ) ;
#253 = DIRECTION ( 'NONE',  ( -1.000000000000000000, 0.000000000000000000, 0.000000000000000000 ) ) ;
#254 = EDGE_LOOP ( 'NONE', ( #192, #206, #76, #202 ) ) ;
#255 = APPLICATION_PROTOCOL_DEFINITION ( 'international standard', 'config_control_design', 1994, #85 ) ;
ENDSEC;
END-ISO-10303-21;
