ISO-10303-21;
HEADER;
FILE_DESCRIPTION (( 'STEP AP203' ),
    '1' );
FILE_NAME ('3037.STEP',
    '2022-07-07T17:46:45',
    ( '' ),
    ( '' ),
    'SwSTEP 2.0',
    'SolidWorks 2019',
    '' );
FILE_SCHEMA (( 'CONFIG_CONTROL_DESIGN' ));
ENDSEC;

DATA;
#1 = EDGE_LOOP ( 'NONE', ( #12, #145, #37, #178 ) ) ;
#2 = SECURITY_CLASSIFICATION ( '', '', #78 ) ;
#3 = ORGANIZATION ( 'NEURÈENÝ', 'NEURÈENÝ', '' ) ;
#4 = CC_DESIGN_DATE_AND_TIME_ASSIGNMENT ( #118, #11, ( #2 ) ) ;
#5 = PERSON ( 'NEURÈENÝ', 'NEURÈENÝ', 'NEURÈENÝ', ('NEURÈENÝ'), ('NEURÈENÝ'), ('NEURÈENÝ') ) ;
#6 = CARTESIAN_POINT ( 'NONE',  ( 0.000000000000000000, 0.000000000000000000, 3.000000000000000000 ) ) ;
#7 = CARTESIAN_POINT ( 'NONE',  ( -5.000000000000000000, 0.000000000000000000, 3.000000000000000000 ) ) ;
#8 = DIRECTION ( 'NONE',  ( 1.000000000000000000, 0.000000000000000000, 0.000000000000000000 ) ) ;
#9 = AXIS2_PLACEMENT_3D ( 'NONE', #204, #150, #8 ) ;
#10 = DIRECTION ( 'NONE',  ( 1.000000000000000000, 0.000000000000000000, 0.000000000000000000 ) ) ;
#11 = DATE_TIME_ROLE ( 'classification_date' ) ;
#12 = ORIENTED_EDGE ( 'NONE', *, *, #117, .F. ) ;
#13 = DIRECTION ( 'NONE',  ( 1.000000000000000000, 0.000000000000000000, 0.000000000000000000 ) ) ;
#14 = CARTESIAN_POINT ( 'NONE',  ( 5.000000000000000000, 6.123233995736766282E-16, 0.000000000000000000 ) ) ;
#15 = EDGE_CURVE ( 'NONE', #58, #63, #214, .T. ) ;
#16 = EDGE_LOOP ( 'NONE', ( #217, #113 ) ) ;
#17 = DATE_AND_TIME ( #213, #222 ) ;
#18 = ORIENTED_EDGE ( 'NONE', *, *, #160, .T. ) ;
#19 = CC_DESIGN_PERSON_AND_ORGANIZATION_ASSIGNMENT ( #248, #156, ( #199 ) ) ;
#20 = PRODUCT_RELATED_PRODUCT_CATEGORY ( 'detail', '', ( #169 ) ) ;
#21 = DIRECTION ( 'NONE',  ( -1.000000000000000000, 0.000000000000000000, 0.000000000000000000 ) ) ;
#22 = CARTESIAN_POINT ( 'NONE',  ( 0.000000000000000000, 0.000000000000000000, 0.000000000000000000 ) ) ;
#23 = PLANE ( 'NONE',  #171 ) ;
#24 = SHAPE_DEFINITION_REPRESENTATION ( #246, #114 ) ;
#25 = DIRECTION ( 'NONE',  ( 0.000000000000000000, 0.000000000000000000, 1.000000000000000000 ) ) ;
#26 = UNCERTAINTY_MEASURE_WITH_UNIT (LENGTH_MEASURE( 1.000000000000000082E-05 ), #243, 'distance_accuracy_value', 'NONE');
#27 = CIRCLE ( 'NONE', #197, 5.000000000000000000 ) ;
#28 = CC_DESIGN_PERSON_AND_ORGANIZATION_ASSIGNMENT ( #250, #122, ( #183 ) ) ;
#29 = APPLICATION_CONTEXT ( 'configuration controlled 3d designs of mechanical parts and assemblies' ) ;
#30 = CALENDAR_DATE ( 2022, 7, 7 ) ;
#31 = APPROVAL_PERSON_ORGANIZATION ( #195, #154, #76 ) ;
#32 = CARTESIAN_POINT ( 'NONE',  ( 0.000000000000000000, 0.000000000000000000, 3.000000000000000000 ) ) ;
#33 =( NAMED_UNIT ( * ) SI_UNIT ( $, .STERADIAN. ) SOLID_ANGLE_UNIT ( ) );
#34 = DIRECTION ( 'NONE',  ( 1.000000000000000000, 0.000000000000000000, 0.000000000000000000 ) ) ;
#35 =( NAMED_UNIT ( * ) PLANE_ANGLE_UNIT ( ) SI_UNIT ( $, .RADIAN. ) );
#36 = DIRECTION ( 'NONE',  ( 1.000000000000000000, 0.000000000000000000, 0.000000000000000000 ) ) ;
#37 = ORIENTED_EDGE ( 'NONE', *, *, #141, .T. ) ;
#38 = CC_DESIGN_SECURITY_CLASSIFICATION ( #2, ( #199 ) ) ;
#39 = APPROVAL ( #189, 'NEURÈENÝ' ) ;
#40 = ORIENTED_EDGE ( 'NONE', *, *, #80, .T. ) ;
#41 = AXIS2_PLACEMENT_3D ( 'NONE', #6, #66, #21 ) ;
#42 = EDGE_CURVE ( 'NONE', #121, #95, #90, .T. ) ;
#43 = DIRECTION ( 'NONE',  ( -0.000000000000000000, -0.000000000000000000, -1.000000000000000000 ) ) ;
#44 = FACE_OUTER_BOUND ( 'NONE', #16, .T. ) ;
#45 = FACE_OUTER_BOUND ( 'NONE', #119, .T. ) ;
#46 = APPLICATION_CONTEXT ( 'configuration controlled 3d designs of mechanical parts and assemblies' ) ;
#47 = AXIS2_PLACEMENT_3D ( 'NONE', #251, #239, #249 ) ;
#48 = CC_DESIGN_PERSON_AND_ORGANIZATION_ASSIGNMENT ( #228, #54, ( #2 ) ) ;
#49 = CYLINDRICAL_SURFACE ( 'NONE', #236, 5.000000000000000000 ) ;
#50 = VERTEX_POINT ( 'NONE', #55 ) ;
#51 = CARTESIAN_POINT ( 'NONE',  ( 0.000000000000000000, 0.000000000000000000, 0.000000000000000000 ) ) ;
#52 = EDGE_LOOP ( 'NONE', ( #105, #40, #153, #73 ) ) ;
#53 = EDGE_CURVE ( 'NONE', #163, #58, #134, .T. ) ;
#54 = PERSON_AND_ORGANIZATION_ROLE ( 'classification_officer' ) ;
#55 = CARTESIAN_POINT ( 'NONE',  ( -5.000000000000000000, 0.000000000000000000, 0.000000000000000000 ) ) ;
#56 = CARTESIAN_POINT ( 'NONE',  ( 0.000000000000000000, 0.000000000000000000, 0.000000000000000000 ) ) ;
#57 = DIRECTION ( 'NONE',  ( -0.000000000000000000, -0.000000000000000000, -1.000000000000000000 ) ) ;
#58 = VERTEX_POINT ( 'NONE', #235 ) ;
#59 = AXIS2_PLACEMENT_3D ( 'NONE', #92, #149, #155 ) ;
#60 = APPROVAL_DATE_TIME ( #17, #39 ) ;
#61 = DIRECTION ( 'NONE',  ( 1.000000000000000000, 0.000000000000000000, 0.000000000000000000 ) ) ;
#62 = MANIFOLD_SOLID_BREP ( 'Pøidat vysunutím3', #166 ) ;
#63 = VERTEX_POINT ( 'NONE', #14 ) ;
#64 = EDGE_CURVE ( 'NONE', #196, #229, #140, .T. ) ;
#65 = DIRECTION ( 'NONE',  ( 1.000000000000000000, 0.000000000000000000, -0.000000000000000000 ) ) ;
#66 = DIRECTION ( 'NONE',  ( -0.000000000000000000, -0.000000000000000000, -1.000000000000000000 ) ) ;
#67 = AXIS2_PLACEMENT_3D ( 'NONE', #132, #242, #10 ) ;
#68 = ADVANCED_FACE ( 'NONE', ( #175, #164 ), #103, .T. ) ;
#69 = CC_DESIGN_APPROVAL ( #154, ( #199 ) ) ;
#70 = CARTESIAN_POINT ( 'NONE',  ( 2.500000000000000000, 3.061616997868383141E-16, 318.0000000000000000 ) ) ;
#71 = APPROVAL_STATUS ( 'not_yet_approved' ) ;
#72 = VECTOR ( 'NONE', #161, 1000.000000000000000 ) ;
#73 = ORIENTED_EDGE ( 'NONE', *, *, #160, .F. ) ;
#74 = DIRECTION ( 'NONE',  ( -0.000000000000000000, -0.000000000000000000, -1.000000000000000000 ) ) ;
#75 = ADVANCED_FACE ( 'NONE', ( #159 ), #233, .T. ) ;
#76 = APPROVAL_ROLE ( '' ) ;
#77 = EDGE_LOOP ( 'NONE', ( #252, #209 ) ) ;
#78 = SECURITY_CLASSIFICATION_LEVEL ( 'unclassified' ) ;
#79 = CARTESIAN_POINT ( 'NONE',  ( 0.000000000000000000, 0.000000000000000000, 3.000000000000000000 ) ) ;
#80 = EDGE_CURVE ( 'NONE', #229, #95, #211, .T. ) ;
#81 = PERSON_AND_ORGANIZATION_ROLE ( 'design_owner' ) ;
#82 = LOCAL_TIME ( 19, 46, 45.00000000000000000, #135 ) ;
#83 = CARTESIAN_POINT ( 'NONE',  ( 5.000000000000000000, 6.123233995736766282E-16, 3.000000000000000000 ) ) ;
#84 = ORIENTED_EDGE ( 'NONE', *, *, #141, .F. ) ;
#85 = EDGE_CURVE ( 'NONE', #163, #50, #185, .T. ) ;
#86 = DIRECTION ( 'NONE',  ( 0.000000000000000000, 0.000000000000000000, 1.000000000000000000 ) ) ;
#87 = CIRCLE ( 'NONE', #67, 2.500000000000000000 ) ;
#88 = CIRCLE ( 'NONE', #216, 5.000000000000000000 ) ;
#89 = CARTESIAN_POINT ( 'NONE',  ( 0.000000000000000000, 0.000000000000000000, 3.000000000000000000 ) ) ;
#90 = CIRCLE ( 'NONE', #207, 2.500000000000000000 ) ;
#91 = DIRECTION ( 'NONE',  ( -0.000000000000000000, -0.000000000000000000, -1.000000000000000000 ) ) ;
#92 = CARTESIAN_POINT ( 'NONE',  ( 0.000000000000000000, 0.000000000000000000, 318.0000000000000000 ) ) ;
#93 = FACE_OUTER_BOUND ( 'NONE', #143, .T. ) ;
#94 = APPROVAL ( #71, 'NEURÈENÝ' ) ;
#95 = VERTEX_POINT ( 'NONE', #245 ) ;
#96 = APPROVAL_ROLE ( '' ) ;
#97 = LOCAL_TIME ( 19, 46, 45.00000000000000000, #142 ) ;
#98 = PERSON_AND_ORGANIZATION ( #5, #3 ) ;
#99 = CALENDAR_DATE ( 2022, 7, 7 ) ;
#100 = DIRECTION ( 'NONE',  ( 0.000000000000000000, 0.000000000000000000, 1.000000000000000000 ) ) ;
#101 = ORIENTED_EDGE ( 'NONE', *, *, #237, .F. ) ;
#102 = DIRECTION ( 'NONE',  ( 0.000000000000000000, 0.000000000000000000, 1.000000000000000000 ) ) ;
#103 = PLANE ( 'NONE',  #47 ) ;
#104 = APPROVAL_STATUS ( 'not_yet_approved' ) ;
#105 = ORIENTED_EDGE ( 'NONE', *, *, #172, .F. ) ;
#106 = AXIS2_PLACEMENT_3D ( 'NONE', #167, #43, #184 ) ;
#107 = VECTOR ( 'NONE', #220, 1000.000000000000000 ) ;
#108 = CARTESIAN_POINT ( 'NONE',  ( 0.000000000000000000, 0.000000000000000000, 0.000000000000000000 ) ) ;
#109 = DIRECTION ( 'NONE',  ( 0.000000000000000000, 0.000000000000000000, 1.000000000000000000 ) ) ;
#110 = CARTESIAN_POINT ( 'NONE',  ( -2.500000000000000000, 0.000000000000000000, 318.0000000000000000 ) ) ;
#111 = DIRECTION ( 'NONE',  ( 1.000000000000000000, 0.000000000000000000, 0.000000000000000000 ) ) ;
#112 = ADVANCED_FACE ( 'NONE', ( #93 ), #23, .F. ) ;
#113 = ORIENTED_EDGE ( 'NONE', *, *, #172, .T. ) ;
#114 = ADVANCED_BREP_SHAPE_REPRESENTATION ( '3037', ( #62, #116 ), #182 ) ;
#115 = LOCAL_TIME ( 19, 46, 45.00000000000000000, #158 ) ;
#116 = AXIS2_PLACEMENT_3D ( 'NONE', #56, #102, #13 ) ;
#117 = EDGE_CURVE ( 'NONE', #58, #163, #27, .T. ) ;
#118 = DATE_AND_TIME ( #30, #82 ) ;
#119 = EDGE_LOOP ( 'NONE', ( #208, #176, #18, #230 ) ) ;
#120 = MECHANICAL_CONTEXT ( 'NONE', #29, 'mechanical' ) ;
#121 = VERTEX_POINT ( 'NONE', #152 ) ;
#122 = PERSON_AND_ORGANIZATION_ROLE ( 'creator' ) ;
#123 = ORIENTED_EDGE ( 'NONE', *, *, #85, .T. ) ;
#124 = CC_DESIGN_APPROVAL ( #94, ( #2 ) ) ;
#125 = ADVANCED_FACE ( 'NONE', ( #225 ), #49, .T. ) ;
#126 = FACE_OUTER_BOUND ( 'NONE', #1, .T. ) ;
#127 = ADVANCED_FACE ( 'NONE', ( #44 ), #128, .T. ) ;
#128 = PLANE ( 'NONE',  #59 ) ;
#129 = DIRECTION ( 'NONE',  ( 1.000000000000000000, 0.000000000000000000, 0.000000000000000000 ) ) ;
#130 = CARTESIAN_POINT ( 'NONE',  ( 0.000000000000000000, 0.000000000000000000, 3.000000000000000000 ) ) ;
#131 = CALENDAR_DATE ( 2022, 7, 7 ) ;
#132 = CARTESIAN_POINT ( 'NONE',  ( 0.000000000000000000, 0.000000000000000000, 318.0000000000000000 ) ) ;
#133 = COORDINATED_UNIVERSAL_TIME_OFFSET ( 1, 0, .AHEAD. ) ;
#134 = CIRCLE ( 'NONE', #212, 5.000000000000000000 ) ;
#135 = COORDINATED_UNIVERSAL_TIME_OFFSET ( 1, 0, .AHEAD. ) ;
#136 = ORIENTED_EDGE ( 'NONE', *, *, #42, .F. ) ;
#137 = LOCAL_TIME ( 19, 46, 45.00000000000000000, #133 ) ;
#138 = APPROVAL_DATE_TIME ( #255, #154 ) ;
#139 = DIRECTION ( 'NONE',  ( -1.000000000000000000, 0.000000000000000000, 0.000000000000000000 ) ) ;
#140 = CIRCLE ( 'NONE', #148, 2.500000000000000000 ) ;
#141 = EDGE_CURVE ( 'NONE', #63, #50, #88, .T. ) ;
#142 = COORDINATED_UNIVERSAL_TIME_OFFSET ( 1, 0, .AHEAD. ) ;
#143 = EDGE_LOOP ( 'NONE', ( #101, #84 ) ) ;
#144 = APPLICATION_PROTOCOL_DEFINITION ( 'international standard', 'config_control_design', 1994, #29 ) ;
#145 = ORIENTED_EDGE ( 'NONE', *, *, #15, .T. ) ;
#146 = ORIENTED_EDGE ( 'NONE', *, *, #53, .F. ) ;
#147 = CYLINDRICAL_SURFACE ( 'NONE', #106, 2.500000000000000000 ) ;
#148 = AXIS2_PLACEMENT_3D ( 'NONE', #190, #100, #61 ) ;
#149 = DIRECTION ( 'NONE',  ( 0.000000000000000000, 0.000000000000000000, 1.000000000000000000 ) ) ;
#150 = DIRECTION ( 'NONE',  ( 0.000000000000000000, 0.000000000000000000, 1.000000000000000000 ) ) ;
#151 = APPROVAL_PERSON_ORGANIZATION ( #177, #39, #234 ) ;
#152 = CARTESIAN_POINT ( 'NONE',  ( -2.500000000000000000, 0.000000000000000000, 3.000000000000000000 ) ) ;
#153 = ORIENTED_EDGE ( 'NONE', *, *, #218, .T. ) ;
#154 = APPROVAL ( #104, 'NEURÈENÝ' ) ;
#155 = DIRECTION ( 'NONE',  ( 1.000000000000000000, 0.000000000000000000, -0.000000000000000000 ) ) ;
#156 = PERSON_AND_ORGANIZATION_ROLE ( 'design_supplier' ) ;
#157 = CARTESIAN_POINT ( 'NONE',  ( 0.000000000000000000, 0.000000000000000000, 318.0000000000000000 ) ) ;
#158 = COORDINATED_UNIVERSAL_TIME_OFFSET ( 1, 0, .AHEAD. ) ;
#159 = FACE_OUTER_BOUND ( 'NONE', #52, .T. ) ;
#160 = EDGE_CURVE ( 'NONE', #196, #121, #186, .T. ) ;
#161 = DIRECTION ( 'NONE',  ( -0.000000000000000000, -0.000000000000000000, -1.000000000000000000 ) ) ;
#162 = APPLICATION_PROTOCOL_DEFINITION ( 'international standard', 'config_control_design', 1994, #46 ) ;
#163 = VERTEX_POINT ( 'NONE', #7 ) ;
#164 = FACE_OUTER_BOUND ( 'NONE', #77, .T. ) ;
#165 = AXIS2_PLACEMENT_3D ( 'NONE', #22, #223, #129 ) ;
#166 = CLOSED_SHELL ( 'NONE', ( #75, #210, #125, #68, #112, #200, #127 ) ) ;
#167 = CARTESIAN_POINT ( 'NONE',  ( 0.000000000000000000, 0.000000000000000000, 318.0000000000000000 ) ) ;
#168 = CARTESIAN_POINT ( 'NONE',  ( -2.500000000000000000, 0.000000000000000000, 318.0000000000000000 ) ) ;
#169 = PRODUCT ( '3037', '3037', '', ( #120 ) ) ;
#170 = DIRECTION ( 'NONE',  ( 0.000000000000000000, 0.000000000000000000, 1.000000000000000000 ) ) ;
#171 = AXIS2_PLACEMENT_3D ( 'NONE', #108, #109, #65 ) ;
#172 = EDGE_CURVE ( 'NONE', #229, #196, #87, .T. ) ;
#173 = PERSON_AND_ORGANIZATION_ROLE ( 'creator' ) ;
#174 = COORDINATED_UNIVERSAL_TIME_OFFSET ( 1, 0, .AHEAD. ) ;
#175 = FACE_BOUND ( 'NONE', #238, .T. ) ;
#176 = ORIENTED_EDGE ( 'NONE', *, *, #64, .F. ) ;
#177 = PERSON_AND_ORGANIZATION ( #5, #3 ) ;
#178 = ORIENTED_EDGE ( 'NONE', *, *, #85, .F. ) ;
#179 = CALENDAR_DATE ( 2022, 7, 7 ) ;
#180 = DIRECTION ( 'NONE',  ( 0.000000000000000000, 0.000000000000000000, 1.000000000000000000 ) ) ;
#181 = CC_DESIGN_PERSON_AND_ORGANIZATION_ASSIGNMENT ( #98, #173, ( #199 ) ) ;
#182 =( GEOMETRIC_REPRESENTATION_CONTEXT ( 3 ) GLOBAL_UNCERTAINTY_ASSIGNED_CONTEXT ( ( #26 ) ) GLOBAL_UNIT_ASSIGNED_CONTEXT ( ( #243, #35, #33 ) ) REPRESENTATION_CONTEXT ( 'NONE', 'WORKASPACE' ) );
#183 = PRODUCT_DEFINITION ( 'NEZNÁMÝ', '', #199, #187 ) ;
#184 = DIRECTION ( 'NONE',  ( -1.000000000000000000, 0.000000000000000000, 0.000000000000000000 ) ) ;
#185 = LINE ( 'NONE', #221, #201 ) ;
#186 = LINE ( 'NONE', #110, #188 ) ;
#187 = DESIGN_CONTEXT ( 'detailed design', #46, 'design' ) ;
#188 = VECTOR ( 'NONE', #203, 1000.000000000000000 ) ;
#189 = APPROVAL_STATUS ( 'not_yet_approved' ) ;
#190 = CARTESIAN_POINT ( 'NONE',  ( 0.000000000000000000, 0.000000000000000000, 318.0000000000000000 ) ) ;
#191 = AXIS2_PLACEMENT_3D ( 'NONE', #157, #57, #139 ) ;
#192 = ORIENTED_EDGE ( 'NONE', *, *, #218, .F. ) ;
#193 = DATE_AND_TIME ( #99, #97 ) ;
#194 = ORIENTED_EDGE ( 'NONE', *, *, #15, .F. ) ;
#195 = PERSON_AND_ORGANIZATION ( #5, #3 ) ;
#196 = VERTEX_POINT ( 'NONE', #168 ) ;
#197 = AXIS2_PLACEMENT_3D ( 'NONE', #89, #170, #224 ) ;
#198 = CIRCLE ( 'NONE', #9, 2.500000000000000000 ) ;
#199 = PRODUCT_DEFINITION_FORMATION_WITH_SPECIFIED_SOURCE ( 'LIBOVOLNÝ', '', #169, .NOT_KNOWN. ) ;
#200 = ADVANCED_FACE ( 'NONE', ( #45 ), #147, .T. ) ;
#201 = VECTOR ( 'NONE', #74, 1000.000000000000000 ) ;
#202 = CYLINDRICAL_SURFACE ( 'NONE', #41, 5.000000000000000000 ) ;
#203 = DIRECTION ( 'NONE',  ( -0.000000000000000000, -0.000000000000000000, -1.000000000000000000 ) ) ;
#204 = CARTESIAN_POINT ( 'NONE',  ( 0.000000000000000000, 0.000000000000000000, 3.000000000000000000 ) ) ;
#205 = DIRECTION ( 'NONE',  ( -1.000000000000000000, 0.000000000000000000, 0.000000000000000000 ) ) ;
#206 = DATE_AND_TIME ( #131, #137 ) ;
#207 = AXIS2_PLACEMENT_3D ( 'NONE', #79, #180, #36 ) ;
#208 = ORIENTED_EDGE ( 'NONE', *, *, #80, .F. ) ;
#209 = ORIENTED_EDGE ( 'NONE', *, *, #117, .T. ) ;
#210 = ADVANCED_FACE ( 'NONE', ( #126 ), #202, .T. ) ;
#211 = LINE ( 'NONE', #70, #107 ) ;
#212 = AXIS2_PLACEMENT_3D ( 'NONE', #32, #86, #34 ) ;
#213 = CALENDAR_DATE ( 2022, 7, 7 ) ;
#214 = LINE ( 'NONE', #83, #72 ) ;
#215 = PERSON_AND_ORGANIZATION ( #5, #3 ) ;
#216 = AXIS2_PLACEMENT_3D ( 'NONE', #51, #25, #111 ) ;
#217 = ORIENTED_EDGE ( 'NONE', *, *, #64, .T. ) ;
#218 = EDGE_CURVE ( 'NONE', #95, #121, #198, .T. ) ;
#219 = ORIENTED_EDGE ( 'NONE', *, *, #237, .T. ) ;
#220 = DIRECTION ( 'NONE',  ( -0.000000000000000000, -0.000000000000000000, -1.000000000000000000 ) ) ;
#221 = CARTESIAN_POINT ( 'NONE',  ( -5.000000000000000000, 0.000000000000000000, 3.000000000000000000 ) ) ;
#222 = LOCAL_TIME ( 19, 46, 45.00000000000000000, #174 ) ;
#223 = DIRECTION ( 'NONE',  ( 0.000000000000000000, 0.000000000000000000, 1.000000000000000000 ) ) ;
#224 = DIRECTION ( 'NONE',  ( 1.000000000000000000, 0.000000000000000000, 0.000000000000000000 ) ) ;
#225 = FACE_OUTER_BOUND ( 'NONE', #254, .T. ) ;
#226 = CC_DESIGN_PERSON_AND_ORGANIZATION_ASSIGNMENT ( #215, #81, ( #169 ) ) ;
#227 = APPROVAL_DATE_TIME ( #206, #94 ) ;
#228 = PERSON_AND_ORGANIZATION ( #5, #3 ) ;
#229 = VERTEX_POINT ( 'NONE', #241 ) ;
#230 = ORIENTED_EDGE ( 'NONE', *, *, #42, .T. ) ;
#231 = CC_DESIGN_APPROVAL ( #39, ( #183 ) ) ;
#232 = PERSON_AND_ORGANIZATION ( #5, #3 ) ;
#233 = CYLINDRICAL_SURFACE ( 'NONE', #191, 2.500000000000000000 ) ;
#234 = APPROVAL_ROLE ( '' ) ;
#235 = CARTESIAN_POINT ( 'NONE',  ( 5.000000000000000000, 6.123233995736766282E-16, 3.000000000000000000 ) ) ;
#236 = AXIS2_PLACEMENT_3D ( 'NONE', #130, #91, #205 ) ;
#237 = EDGE_CURVE ( 'NONE', #50, #63, #247, .T. ) ;
#238 = EDGE_LOOP ( 'NONE', ( #136, #192 ) ) ;
#239 = DIRECTION ( 'NONE',  ( 0.000000000000000000, 0.000000000000000000, 1.000000000000000000 ) ) ;
#240 = CC_DESIGN_DATE_AND_TIME_ASSIGNMENT ( #193, #253, ( #183 ) ) ;
#241 = CARTESIAN_POINT ( 'NONE',  ( 2.500000000000000000, 3.061616997868383141E-16, 318.0000000000000000 ) ) ;
#242 = DIRECTION ( 'NONE',  ( 0.000000000000000000, 0.000000000000000000, 1.000000000000000000 ) ) ;
#243 =( LENGTH_UNIT ( ) NAMED_UNIT ( * ) SI_UNIT ( .MILLI., .METRE. ) );
#244 = APPROVAL_PERSON_ORGANIZATION ( #232, #94, #96 ) ;
#245 = CARTESIAN_POINT ( 'NONE',  ( 2.500000000000000000, 3.061616997868383141E-16, 3.000000000000000000 ) ) ;
#246 = PRODUCT_DEFINITION_SHAPE ( 'NONE', 'NONE',  #183 ) ;
#247 = CIRCLE ( 'NONE', #165, 5.000000000000000000 ) ;
#248 = PERSON_AND_ORGANIZATION ( #5, #3 ) ;
#249 = DIRECTION ( 'NONE',  ( 1.000000000000000000, 0.000000000000000000, -0.000000000000000000 ) ) ;
#250 = PERSON_AND_ORGANIZATION ( #5, #3 ) ;
#251 = CARTESIAN_POINT ( 'NONE',  ( 0.000000000000000000, 0.000000000000000000, 3.000000000000000000 ) ) ;
#252 = ORIENTED_EDGE ( 'NONE', *, *, #53, .T. ) ;
#253 = DATE_TIME_ROLE ( 'creation_date' ) ;
#254 = EDGE_LOOP ( 'NONE', ( #194, #146, #123, #219 ) ) ;
#255 = DATE_AND_TIME ( #179, #115 ) ;
ENDSEC;
END-ISO-10303-21;
