ISO-10303-21;
HEADER;
FILE_DESCRIPTION (( 'STEP AP203' ),
    '1' );
FILE_NAME ('45d0.STEP',
    '2022-07-07T17:48:41',
    ( '' ),
    ( '' ),
    'SwSTEP 2.0',
    'SolidWorks 2019',
    '' );
FILE_SCHEMA (( 'CONFIG_CONTROL_DESIGN' ));
ENDSEC;

DATA;
#1 = DATE_AND_TIME ( #99, #196 ) ;
#2 =( NAMED_UNIT ( * ) PLANE_ANGLE_UNIT ( ) SI_UNIT ( $, .RADIAN. ) );
#3 = ORIENTED_EDGE ( 'NONE', *, *, #194, .F. ) ;
#4 = LOCAL_TIME ( 19, 48, 41.00000000000000000, #118 ) ;
#5 = PERSON_AND_ORGANIZATION_ROLE ( 'creator' ) ;
#6 = CC_DESIGN_SECURITY_CLASSIFICATION ( #140, ( #12 ) ) ;
#7 = CARTESIAN_POINT ( 'NONE',  ( 0.000000000000000000, 0.000000000000000000, 253.0000000000000000 ) ) ;
#8 = EDGE_LOOP ( 'NONE', ( #220, #130, #185, #86 ) ) ;
#9 = CARTESIAN_POINT ( 'NONE',  ( 2.250000000000000000, 2.755455298081544285E-16, 253.0000000000000000 ) ) ;
#10 = ADVANCED_BREP_SHAPE_REPRESENTATION ( '45d0', ( #62, #145 ), #127 ) ;
#11 = PRODUCT_DEFINITION ( 'NEZNÁMÝ', '', #12, #93 ) ;
#12 = PRODUCT_DEFINITION_FORMATION_WITH_SPECIFIED_SOURCE ( 'LIBOVOLNÝ', '', #21, .NOT_KNOWN. ) ;
#13 = CARTESIAN_POINT ( 'NONE',  ( 0.000000000000000000, 0.000000000000000000, 3.000000000000000000 ) ) ;
#14 = CARTESIAN_POINT ( 'NONE',  ( 0.000000000000000000, 0.000000000000000000, 0.000000000000000000 ) ) ;
#15 = CIRCLE ( 'NONE', #70, 4.000000000000000000 ) ;
#16 = LOCAL_TIME ( 19, 48, 41.00000000000000000, #56 ) ;
#17 = ORIENTED_EDGE ( 'NONE', *, *, #122, .T. ) ;
#18 = FACE_BOUND ( 'NONE', #73, .T. ) ;
#19 = AXIS2_PLACEMENT_3D ( 'NONE', #164, #126, #225 ) ;
#20 = ORIENTED_EDGE ( 'NONE', *, *, #234, .T. ) ;
#21 = PRODUCT ( '45d0', '45d0', '', ( #59 ) ) ;
#22 = CLOSED_SHELL ( 'NONE', ( #55, #101, #221, #92, #31, #24, #168 ) ) ;
#23 = ORIENTED_EDGE ( 'NONE', *, *, #134, .F. ) ;
#24 = ADVANCED_FACE ( 'NONE', ( #212 ), #51, .T. ) ;
#25 = PERSON_AND_ORGANIZATION ( #148, #58 ) ;
#26 = DATE_AND_TIME ( #197, #16 ) ;
#27 = DIRECTION ( 'NONE',  ( 0.000000000000000000, 0.000000000000000000, 1.000000000000000000 ) ) ;
#28 = ORIENTED_EDGE ( 'NONE', *, *, #63, .F. ) ;
#29 = SHAPE_DEFINITION_REPRESENTATION ( #245, #10 ) ;
#30 = CARTESIAN_POINT ( 'NONE',  ( -2.250000000000000000, 0.000000000000000000, 253.0000000000000000 ) ) ;
#31 = ADVANCED_FACE ( 'NONE', ( #144 ), #209, .F. ) ;
#32 = CARTESIAN_POINT ( 'NONE',  ( -4.000000000000000000, 0.000000000000000000, 0.000000000000000000 ) ) ;
#33 = PRODUCT_RELATED_PRODUCT_CATEGORY ( 'detail', '', ( #21 ) ) ;
#34 = DIRECTION ( 'NONE',  ( -0.000000000000000000, -0.000000000000000000, -1.000000000000000000 ) ) ;
#35 = AXIS2_PLACEMENT_3D ( 'NONE', #75, #41, #238 ) ;
#36 = FACE_OUTER_BOUND ( 'NONE', #190, .T. ) ;
#37 = FACE_OUTER_BOUND ( 'NONE', #157, .T. ) ;
#38 = CARTESIAN_POINT ( 'NONE',  ( 0.000000000000000000, 0.000000000000000000, 3.000000000000000000 ) ) ;
#39 = DATE_AND_TIME ( #204, #4 ) ;
#40 = PERSON_AND_ORGANIZATION ( #148, #58 ) ;
#41 = DIRECTION ( 'NONE',  ( -0.000000000000000000, -0.000000000000000000, -1.000000000000000000 ) ) ;
#42 = ORIENTED_EDGE ( 'NONE', *, *, #201, .T. ) ;
#43 = CALENDAR_DATE ( 2022, 7, 7 ) ;
#44 = DIRECTION ( 'NONE',  ( 0.000000000000000000, 0.000000000000000000, 1.000000000000000000 ) ) ;
#45 = ORIENTED_EDGE ( 'NONE', *, *, #194, .T. ) ;
#46 = LOCAL_TIME ( 19, 48, 41.00000000000000000, #218 ) ;
#47 = ORIENTED_EDGE ( 'NONE', *, *, #111, .F. ) ;
#48 = FACE_OUTER_BOUND ( 'NONE', #128, .T. ) ;
#49 = CARTESIAN_POINT ( 'NONE',  ( 0.000000000000000000, 0.000000000000000000, 253.0000000000000000 ) ) ;
#50 = AXIS2_PLACEMENT_3D ( 'NONE', #13, #85, #68 ) ;
#51 = CYLINDRICAL_SURFACE ( 'NONE', #176, 2.250000000000000000 ) ;
#52 = APPROVAL_PERSON_ORGANIZATION ( #40, #129, #132 ) ;
#53 = ORIENTED_EDGE ( 'NONE', *, *, #134, .T. ) ;
#54 = CARTESIAN_POINT ( 'NONE',  ( -2.250000000000000000, 0.000000000000000000, 253.0000000000000000 ) ) ;
#55 = ADVANCED_FACE ( 'NONE', ( #48 ), #106, .T. ) ;
#56 = COORDINATED_UNIVERSAL_TIME_OFFSET ( 1, 0, .AHEAD. ) ;
#57 = APPLICATION_PROTOCOL_DEFINITION ( 'international standard', 'config_control_design', 1994, #229 ) ;
#58 = ORGANIZATION ( 'NEURÈENÝ', 'NEURÈENÝ', '' ) ;
#59 = MECHANICAL_CONTEXT ( 'NONE', #229, 'mechanical' ) ;
#60 = APPROVAL ( #174, 'NEURÈENÝ' ) ;
#61 = DIRECTION ( 'NONE',  ( 0.000000000000000000, 0.000000000000000000, 1.000000000000000000 ) ) ;
#62 = MANIFOLD_SOLID_BREP ( 'Pøidat vysunutím3', #22 ) ;
#63 = EDGE_CURVE ( 'NONE', #102, #217, #91, .T. ) ;
#64 = VERTEX_POINT ( 'NONE', #208 ) ;
#65 = AXIS2_PLACEMENT_3D ( 'NONE', #66, #186, #121 ) ;
#66 = CARTESIAN_POINT ( 'NONE',  ( 0.000000000000000000, 0.000000000000000000, 3.000000000000000000 ) ) ;
#67 = CARTESIAN_POINT ( 'NONE',  ( 0.000000000000000000, 0.000000000000000000, 3.000000000000000000 ) ) ;
#68 = DIRECTION ( 'NONE',  ( 1.000000000000000000, 0.000000000000000000, 0.000000000000000000 ) ) ;
#69 = DIRECTION ( 'NONE',  ( -0.000000000000000000, -0.000000000000000000, -1.000000000000000000 ) ) ;
#70 = AXIS2_PLACEMENT_3D ( 'NONE', #38, #44, #114 ) ;
#71 = PERSON_AND_ORGANIZATION_ROLE ( 'classification_officer' ) ;
#72 = DIRECTION ( 'NONE',  ( 1.000000000000000000, 0.000000000000000000, 0.000000000000000000 ) ) ;
#73 = EDGE_LOOP ( 'NONE', ( #143, #28 ) ) ;
#74 = APPROVAL_STATUS ( 'not_yet_approved' ) ;
#75 = CARTESIAN_POINT ( 'NONE',  ( 0.000000000000000000, 0.000000000000000000, 3.000000000000000000 ) ) ;
#76 = VECTOR ( 'NONE', #107, 1000.000000000000000 ) ;
#77 = APPROVAL_STATUS ( 'not_yet_approved' ) ;
#78 = CARTESIAN_POINT ( 'NONE',  ( -4.000000000000000000, 0.000000000000000000, 3.000000000000000000 ) ) ;
#79 = CC_DESIGN_PERSON_AND_ORGANIZATION_ASSIGNMENT ( #170, #237, ( #12 ) ) ;
#80 = AXIS2_PLACEMENT_3D ( 'NONE', #7, #61, #136 ) ;
#81 = COORDINATED_UNIVERSAL_TIME_OFFSET ( 1, 0, .AHEAD. ) ;
#82 = EDGE_LOOP ( 'NONE', ( #125, #3 ) ) ;
#83 = CALENDAR_DATE ( 2022, 7, 7 ) ;
#84 = AXIS2_PLACEMENT_3D ( 'NONE', #67, #142, #124 ) ;
#85 = DIRECTION ( 'NONE',  ( 0.000000000000000000, 0.000000000000000000, 1.000000000000000000 ) ) ;
#86 = ORIENTED_EDGE ( 'NONE', *, *, #120, .T. ) ;
#87 = CC_DESIGN_PERSON_AND_ORGANIZATION_ASSIGNMENT ( #216, #5, ( #12 ) ) ;
#88 = DIRECTION ( 'NONE',  ( 0.000000000000000000, 0.000000000000000000, 1.000000000000000000 ) ) ;
#89 = DIRECTION ( 'NONE',  ( -1.000000000000000000, 0.000000000000000000, 0.000000000000000000 ) ) ;
#90 = CYLINDRICAL_SURFACE ( 'NONE', #104, 4.000000000000000000 ) ;
#91 = CIRCLE ( 'NONE', #160, 2.250000000000000000 ) ;
#92 = ADVANCED_FACE ( 'NONE', ( #18, #37 ), #249, .T. ) ;
#93 = DESIGN_CONTEXT ( 'detailed design', #147, 'design' ) ;
#94 = PERSON_AND_ORGANIZATION ( #148, #58 ) ;
#95 = APPROVAL_ROLE ( '' ) ;
#96 = DIRECTION ( 'NONE',  ( 1.000000000000000000, 0.000000000000000000, 0.000000000000000000 ) ) ;
#97 = DATE_AND_TIME ( #83, #119 ) ;
#98 = CARTESIAN_POINT ( 'NONE',  ( 0.000000000000000000, 0.000000000000000000, 0.000000000000000000 ) ) ;
#99 = CALENDAR_DATE ( 2022, 7, 7 ) ;
#100 = DIRECTION ( 'NONE',  ( -0.000000000000000000, -0.000000000000000000, -1.000000000000000000 ) ) ;
#101 = ADVANCED_FACE ( 'NONE', ( #36 ), #90, .T. ) ;
#102 = VERTEX_POINT ( 'NONE', #184 ) ;
#103 = APPROVAL_DATE_TIME ( #26, #231 ) ;
#104 = AXIS2_PLACEMENT_3D ( 'NONE', #166, #69, #110 ) ;
#105 = ORIENTED_EDGE ( 'NONE', *, *, #111, .T. ) ;
#106 = CYLINDRICAL_SURFACE ( 'NONE', #202, 2.250000000000000000 ) ;
#107 = DIRECTION ( 'NONE',  ( -0.000000000000000000, -0.000000000000000000, -1.000000000000000000 ) ) ;
#108 = LINE ( 'NONE', #188, #226 ) ;
#109 = VERTEX_POINT ( 'NONE', #32 ) ;
#110 = DIRECTION ( 'NONE',  ( -1.000000000000000000, 0.000000000000000000, 0.000000000000000000 ) ) ;
#111 = EDGE_CURVE ( 'NONE', #203, #227, #191, .T. ) ;
#112 = AXIS2_PLACEMENT_3D ( 'NONE', #241, #152, #159 ) ;
#113 = EDGE_CURVE ( 'NONE', #227, #109, #141, .T. ) ;
#114 = DIRECTION ( 'NONE',  ( 1.000000000000000000, 0.000000000000000000, 0.000000000000000000 ) ) ;
#115 = COORDINATED_UNIVERSAL_TIME_OFFSET ( 1, 0, .AHEAD. ) ;
#116 = CARTESIAN_POINT ( 'NONE',  ( 4.000000000000000000, 4.898587196589412829E-16, 3.000000000000000000 ) ) ;
#117 = DIRECTION ( 'NONE',  ( -0.000000000000000000, -0.000000000000000000, -1.000000000000000000 ) ) ;
#118 = COORDINATED_UNIVERSAL_TIME_OFFSET ( 1, 0, .AHEAD. ) ;
#119 = LOCAL_TIME ( 19, 48, 41.00000000000000000, #81 ) ;
#120 = EDGE_CURVE ( 'NONE', #109, #64, #167, .T. ) ;
#121 = DIRECTION ( 'NONE',  ( 1.000000000000000000, 0.000000000000000000, -0.000000000000000000 ) ) ;
#122 = EDGE_CURVE ( 'NONE', #217, #102, #193, .T. ) ;
#123 = CARTESIAN_POINT ( 'NONE',  ( -4.000000000000000000, 0.000000000000000000, 3.000000000000000000 ) ) ;
#124 = DIRECTION ( 'NONE',  ( 1.000000000000000000, 0.000000000000000000, 0.000000000000000000 ) ) ;
#125 = ORIENTED_EDGE ( 'NONE', *, *, #120, .F. ) ;
#126 = DIRECTION ( 'NONE',  ( 0.000000000000000000, 0.000000000000000000, 1.000000000000000000 ) ) ;
#127 =( GEOMETRIC_REPRESENTATION_CONTEXT ( 3 ) GLOBAL_UNCERTAINTY_ASSIGNED_CONTEXT ( ( #222 ) ) GLOBAL_UNIT_ASSIGNED_CONTEXT ( ( #200, #2, #173 ) ) REPRESENTATION_CONTEXT ( 'NONE', 'WORKASPACE' ) );
#128 = EDGE_LOOP ( 'NONE', ( #224, #53, #239, #195 ) ) ;
#129 = APPROVAL ( #77, 'NEURÈENÝ' ) ;
#130 = ORIENTED_EDGE ( 'NONE', *, *, #243, .F. ) ;
#131 = FACE_OUTER_BOUND ( 'NONE', #8, .T. ) ;
#132 = APPROVAL_ROLE ( '' ) ;
#133 = CARTESIAN_POINT ( 'NONE',  ( 0.000000000000000000, 0.000000000000000000, 253.0000000000000000 ) ) ;
#134 = EDGE_CURVE ( 'NONE', #246, #102, #108, .T. ) ;
#135 = APPROVAL_DATE_TIME ( #240, #60 ) ;
#136 = DIRECTION ( 'NONE',  ( 1.000000000000000000, 0.000000000000000000, -0.000000000000000000 ) ) ;
#137 = APPROVAL_DATE_TIME ( #1, #129 ) ;
#138 = DIRECTION ( 'NONE',  ( -0.000000000000000000, -0.000000000000000000, -1.000000000000000000 ) ) ;
#139 = ORIENTED_EDGE ( 'NONE', *, *, #158, .T. ) ;
#140 = SECURITY_CLASSIFICATION ( '', '', #253 ) ;
#141 = LINE ( 'NONE', #123, #76 ) ;
#142 = DIRECTION ( 'NONE',  ( 0.000000000000000000, 0.000000000000000000, 1.000000000000000000 ) ) ;
#143 = ORIENTED_EDGE ( 'NONE', *, *, #122, .F. ) ;
#144 = FACE_OUTER_BOUND ( 'NONE', #82, .T. ) ;
#145 = AXIS2_PLACEMENT_3D ( 'NONE', #98, #175, #154 ) ;
#146 = CC_DESIGN_PERSON_AND_ORGANIZATION_ASSIGNMENT ( #94, #255, ( #21 ) ) ;
#147 = APPLICATION_CONTEXT ( 'configuration controlled 3d designs of mechanical parts and assemblies' ) ;
#148 = PERSON ( 'NEURÈENÝ', 'NEURÈENÝ', 'NEURÈENÝ', ('NEURÈENÝ'), ('NEURÈENÝ'), ('NEURÈENÝ') ) ;
#149 = APPROVAL_PERSON_ORGANIZATION ( #153, #60, #155 ) ;
#150 = DATE_TIME_ROLE ( 'classification_date' ) ;
#151 = CARTESIAN_POINT ( 'NONE',  ( 4.000000000000000000, 4.898587196589412829E-16, 3.000000000000000000 ) ) ;
#152 = DIRECTION ( 'NONE',  ( 0.000000000000000000, 0.000000000000000000, 1.000000000000000000 ) ) ;
#153 = PERSON_AND_ORGANIZATION ( #148, #58 ) ;
#154 = DIRECTION ( 'NONE',  ( 1.000000000000000000, 0.000000000000000000, 0.000000000000000000 ) ) ;
#155 = APPROVAL_ROLE ( '' ) ;
#156 = FACE_OUTER_BOUND ( 'NONE', #207, .T. ) ;
#157 = EDGE_LOOP ( 'NONE', ( #179, #105 ) ) ;
#158 = EDGE_CURVE ( 'NONE', #246, #161, #244, .T. ) ;
#159 = DIRECTION ( 'NONE',  ( 1.000000000000000000, 0.000000000000000000, 0.000000000000000000 ) ) ;
#160 = AXIS2_PLACEMENT_3D ( 'NONE', #162, #251, #210 ) ;
#161 = VERTEX_POINT ( 'NONE', #54 ) ;
#162 = CARTESIAN_POINT ( 'NONE',  ( 0.000000000000000000, 0.000000000000000000, 3.000000000000000000 ) ) ;
#163 = DIRECTION ( 'NONE',  ( -0.000000000000000000, -0.000000000000000000, -1.000000000000000000 ) ) ;
#164 = CARTESIAN_POINT ( 'NONE',  ( 0.000000000000000000, 0.000000000000000000, 0.000000000000000000 ) ) ;
#165 = CC_DESIGN_DATE_AND_TIME_ASSIGNMENT ( #39, #178, ( #11 ) ) ;
#166 = CARTESIAN_POINT ( 'NONE',  ( 0.000000000000000000, 0.000000000000000000, 3.000000000000000000 ) ) ;
#167 = CIRCLE ( 'NONE', #250, 4.000000000000000000 ) ;
#168 = ADVANCED_FACE ( 'NONE', ( #156 ), #171, .T. ) ;
#169 = ORIENTED_EDGE ( 'NONE', *, *, #172, .T. ) ;
#170 = PERSON_AND_ORGANIZATION ( #148, #58 ) ;
#171 = PLANE ( 'NONE',  #80 ) ;
#172 = EDGE_CURVE ( 'NONE', #161, #217, #219, .T. ) ;
#173 =( NAMED_UNIT ( * ) SI_UNIT ( $, .STERADIAN. ) SOLID_ANGLE_UNIT ( ) );
#174 = APPROVAL_STATUS ( 'not_yet_approved' ) ;
#175 = DIRECTION ( 'NONE',  ( 0.000000000000000000, 0.000000000000000000, 1.000000000000000000 ) ) ;
#176 = AXIS2_PLACEMENT_3D ( 'NONE', #49, #163, #89 ) ;
#177 = ORIENTED_EDGE ( 'NONE', *, *, #113, .F. ) ;
#178 = DATE_TIME_ROLE ( 'creation_date' ) ;
#179 = ORIENTED_EDGE ( 'NONE', *, *, #243, .T. ) ;
#180 = LINE ( 'NONE', #151, #232 ) ;
#181 = AXIS2_PLACEMENT_3D ( 'NONE', #254, #27, #72 ) ;
#182 = CC_DESIGN_DATE_AND_TIME_ASSIGNMENT ( #97, #150, ( #140 ) ) ;
#183 = ORIENTED_EDGE ( 'NONE', *, *, #234, .F. ) ;
#184 = CARTESIAN_POINT ( 'NONE',  ( 2.250000000000000000, 2.755455298081544285E-16, 3.000000000000000000 ) ) ;
#185 = ORIENTED_EDGE ( 'NONE', *, *, #113, .T. ) ;
#186 = DIRECTION ( 'NONE',  ( 0.000000000000000000, 0.000000000000000000, 1.000000000000000000 ) ) ;
#187 = CC_DESIGN_PERSON_AND_ORGANIZATION_ASSIGNMENT ( #25, #71, ( #140 ) ) ;
#188 = CARTESIAN_POINT ( 'NONE',  ( 2.250000000000000000, 2.755455298081544285E-16, 253.0000000000000000 ) ) ;
#189 = APPROVAL_PERSON_ORGANIZATION ( #198, #231, #95 ) ;
#190 = EDGE_LOOP ( 'NONE', ( #47, #42, #45, #177 ) ) ;
#191 = CIRCLE ( 'NONE', #50, 4.000000000000000000 ) ;
#192 = AXIS2_PLACEMENT_3D ( 'NONE', #133, #205, #96 ) ;
#193 = CIRCLE ( 'NONE', #84, 2.250000000000000000 ) ;
#194 = EDGE_CURVE ( 'NONE', #64, #109, #206, .T. ) ;
#195 = ORIENTED_EDGE ( 'NONE', *, *, #172, .F. ) ;
#196 = LOCAL_TIME ( 19, 48, 41.00000000000000000, #115 ) ;
#197 = CALENDAR_DATE ( 2022, 7, 7 ) ;
#198 = PERSON_AND_ORGANIZATION ( #148, #58 ) ;
#199 = APPLICATION_PROTOCOL_DEFINITION ( 'international standard', 'config_control_design', 1994, #147 ) ;
#200 =( LENGTH_UNIT ( ) NAMED_UNIT ( * ) SI_UNIT ( .MILLI., .METRE. ) );
#201 = EDGE_CURVE ( 'NONE', #203, #64, #180, .T. ) ;
#202 = AXIS2_PLACEMENT_3D ( 'NONE', #230, #34, #211 ) ;
#203 = VERTEX_POINT ( 'NONE', #116 ) ;
#204 = CALENDAR_DATE ( 2022, 7, 7 ) ;
#205 = DIRECTION ( 'NONE',  ( 0.000000000000000000, 0.000000000000000000, 1.000000000000000000 ) ) ;
#206 = CIRCLE ( 'NONE', #181, 4.000000000000000000 ) ;
#207 = EDGE_LOOP ( 'NONE', ( #20, #139 ) ) ;
#208 = CARTESIAN_POINT ( 'NONE',  ( 4.000000000000000000, 4.898587196589412829E-16, 0.000000000000000000 ) ) ;
#209 = PLANE ( 'NONE',  #19 ) ;
#210 = DIRECTION ( 'NONE',  ( 1.000000000000000000, 0.000000000000000000, 0.000000000000000000 ) ) ;
#211 = DIRECTION ( 'NONE',  ( -1.000000000000000000, 0.000000000000000000, 0.000000000000000000 ) ) ;
#212 = FACE_OUTER_BOUND ( 'NONE', #247, .T. ) ;
#213 = CC_DESIGN_PERSON_AND_ORGANIZATION_ASSIGNMENT ( #236, #214, ( #11 ) ) ;
#214 = PERSON_AND_ORGANIZATION_ROLE ( 'creator' ) ;
#215 = CYLINDRICAL_SURFACE ( 'NONE', #35, 4.000000000000000000 ) ;
#216 = PERSON_AND_ORGANIZATION ( #148, #58 ) ;
#217 = VERTEX_POINT ( 'NONE', #235 ) ;
#218 = COORDINATED_UNIVERSAL_TIME_OFFSET ( 1, 0, .AHEAD. ) ;
#219 = LINE ( 'NONE', #30, #223 ) ;
#220 = ORIENTED_EDGE ( 'NONE', *, *, #201, .F. ) ;
#221 = ADVANCED_FACE ( 'NONE', ( #131 ), #215, .T. ) ;
#222 = UNCERTAINTY_MEASURE_WITH_UNIT (LENGTH_MEASURE( 1.000000000000000082E-05 ), #200, 'distance_accuracy_value', 'NONE');
#223 = VECTOR ( 'NONE', #117, 1000.000000000000000 ) ;
#224 = ORIENTED_EDGE ( 'NONE', *, *, #158, .F. ) ;
#225 = DIRECTION ( 'NONE',  ( 1.000000000000000000, 0.000000000000000000, -0.000000000000000000 ) ) ;
#226 = VECTOR ( 'NONE', #100, 1000.000000000000000 ) ;
#227 = VERTEX_POINT ( 'NONE', #78 ) ;
#228 = CC_DESIGN_APPROVAL ( #129, ( #11 ) ) ;
#229 = APPLICATION_CONTEXT ( 'configuration controlled 3d designs of mechanical parts and assemblies' ) ;
#230 = CARTESIAN_POINT ( 'NONE',  ( 0.000000000000000000, 0.000000000000000000, 253.0000000000000000 ) ) ;
#231 = APPROVAL ( #74, 'NEURÈENÝ' ) ;
#232 = VECTOR ( 'NONE', #138, 1000.000000000000000 ) ;
#233 = CC_DESIGN_APPROVAL ( #60, ( #140 ) ) ;
#234 = EDGE_CURVE ( 'NONE', #161, #246, #242, .T. ) ;
#235 = CARTESIAN_POINT ( 'NONE',  ( -2.250000000000000000, 0.000000000000000000, 3.000000000000000000 ) ) ;
#236 = PERSON_AND_ORGANIZATION ( #148, #58 ) ;
#237 = PERSON_AND_ORGANIZATION_ROLE ( 'design_supplier' ) ;
#238 = DIRECTION ( 'NONE',  ( -1.000000000000000000, 0.000000000000000000, 0.000000000000000000 ) ) ;
#239 = ORIENTED_EDGE ( 'NONE', *, *, #63, .T. ) ;
#240 = DATE_AND_TIME ( #43, #46 ) ;
#241 = CARTESIAN_POINT ( 'NONE',  ( 0.000000000000000000, 0.000000000000000000, 253.0000000000000000 ) ) ;
#242 = CIRCLE ( 'NONE', #112, 2.250000000000000000 ) ;
#243 = EDGE_CURVE ( 'NONE', #227, #203, #15, .T. ) ;
#244 = CIRCLE ( 'NONE', #192, 2.250000000000000000 ) ;
#245 = PRODUCT_DEFINITION_SHAPE ( 'NONE', 'NONE',  #11 ) ;
#246 = VERTEX_POINT ( 'NONE', #9 ) ;
#247 = EDGE_LOOP ( 'NONE', ( #23, #183, #169, #17 ) ) ;
#248 = DIRECTION ( 'NONE',  ( 1.000000000000000000, 0.000000000000000000, 0.000000000000000000 ) ) ;
#249 = PLANE ( 'NONE',  #65 ) ;
#250 = AXIS2_PLACEMENT_3D ( 'NONE', #14, #88, #248 ) ;
#251 = DIRECTION ( 'NONE',  ( 0.000000000000000000, 0.000000000000000000, 1.000000000000000000 ) ) ;
#252 = CC_DESIGN_APPROVAL ( #231, ( #12 ) ) ;
#253 = SECURITY_CLASSIFICATION_LEVEL ( 'unclassified' ) ;
#254 = CARTESIAN_POINT ( 'NONE',  ( 0.000000000000000000, 0.000000000000000000, 0.000000000000000000 ) ) ;
#255 = PERSON_AND_ORGANIZATION_ROLE ( 'design_owner' ) ;
ENDSEC;
END-ISO-10303-21;
