ISO-10303-21;
HEADER;
FILE_DESCRIPTION (( 'STEP AP203' ),
    '1' );
FILE_NAME ('a8df.STEP',
    '2022-07-07T17:05:42',
    ( '' ),
    ( '' ),
    'SwSTEP 2.0',
    'SolidWorks 2019',
    '' );
FILE_SCHEMA (( 'CONFIG_CONTROL_DESIGN' ));
ENDSEC;

DATA;
#1 = ORIENTED_EDGE ( 'NONE', *, *, #17, .T. ) ;
#2 = ORIENTED_EDGE ( 'NONE', *, *, #108, .T. ) ;
#3 = CARTESIAN_POINT ( 'NONE',  ( 0.000000000000000000, 0.000000000000000000, 7.000000000000000000 ) ) ;
#4 = ORGANIZATION ( 'NEURÈENÝ', 'NEURÈENÝ', '' ) ;
#5 = ORIENTED_EDGE ( 'NONE', *, *, #31, .T. ) ;
#6 = FACE_BOUND ( 'NONE', #23, .T. ) ;
#7 = ORIENTED_EDGE ( 'NONE', *, *, #173, .T. ) ;
#8 = CLOSED_SHELL ( 'NONE', ( #244, #42, #11, #35, #236, #136, #242 ) ) ;
#9 = AXIS2_PLACEMENT_3D ( 'NONE', #129, #187, #246 ) ;
#10 = PERSON ( 'NEURÈENÝ', 'NEURÈENÝ', 'NEURÈENÝ', ('NEURÈENÝ'), ('NEURÈENÝ'), ('NEURÈENÝ') ) ;
#11 = ADVANCED_FACE ( 'NONE', ( #193 ), #123, .T. ) ;
#12 = CARTESIAN_POINT ( 'NONE',  ( -12.00000000000000178, 0.000000000000000000, 0.000000000000000000 ) ) ;
#13 = CIRCLE ( 'NONE', #156, 12.00000000000000178 ) ;
#14 = APPROVAL ( #55, 'NEURÈENÝ' ) ;
#15 = DIRECTION ( 'NONE',  ( -0.000000000000000000, -0.000000000000000000, -1.000000000000000000 ) ) ;
#16 = PERSON_AND_ORGANIZATION_ROLE ( 'design_supplier' ) ;
#17 = EDGE_CURVE ( 'NONE', #104, #235, #195, .T. ) ;
#18 = VECTOR ( 'NONE', #70, 1000.000000000000000 ) ;
#19 = SECURITY_CLASSIFICATION_LEVEL ( 'unclassified' ) ;
#20 = MECHANICAL_CONTEXT ( 'NONE', #61, 'mechanical' ) ;
#21 = EDGE_LOOP ( 'NONE', ( #160, #88, #44, #2 ) ) ;
#22 = LOCAL_TIME ( 19, 5, 42.00000000000000000, #230 ) ;
#23 = EDGE_LOOP ( 'NONE', ( #237, #119 ) ) ;
#24 = EDGE_CURVE ( 'NONE', #69, #145, #13, .T. ) ;
#25 = DIRECTION ( 'NONE',  ( -1.000000000000000000, 0.000000000000000000, 0.000000000000000000 ) ) ;
#26 = CARTESIAN_POINT ( 'NONE',  ( 12.00000000000000178, 1.469576158976824144E-15, 0.000000000000000000 ) ) ;
#27 = DIRECTION ( 'NONE',  ( 1.000000000000000000, 0.000000000000000000, 0.000000000000000000 ) ) ;
#28 = CC_DESIGN_PERSON_AND_ORGANIZATION_ASSIGNMENT ( #130, #16, ( #100 ) ) ;
#29 = CIRCLE ( 'NONE', #78, 12.00000000000000178 ) ;
#30 = CIRCLE ( 'NONE', #250, 9.000000000000001776 ) ;
#31 = EDGE_CURVE ( 'NONE', #235, #104, #208, .T. ) ;
#32 = LINE ( 'NONE', #128, #216 ) ;
#33 = FACE_OUTER_BOUND ( 'NONE', #140, .T. ) ;
#34 = CALENDAR_DATE ( 2022, 7, 7 ) ;
#35 = ADVANCED_FACE ( 'NONE', ( #6, #47 ), #239, .T. ) ;
#36 = SHAPE_DEFINITION_REPRESENTATION ( #199, #183 ) ;
#37 = LOCAL_TIME ( 19, 5, 42.00000000000000000, #188 ) ;
#38 = DATE_TIME_ROLE ( 'classification_date' ) ;
#39 = APPROVAL_ROLE ( '' ) ;
#40 = PRODUCT_DEFINITION ( 'NEZNÁMÝ', '', #100, #172 ) ;
#41 = PERSON_AND_ORGANIZATION_ROLE ( 'design_owner' ) ;
#42 = ADVANCED_FACE ( 'NONE', ( #197 ), #179, .T. ) ;
#43 = CARTESIAN_POINT ( 'NONE',  ( 0.000000000000000000, 0.000000000000000000, 7.000000000000000000 ) ) ;
#44 = ORIENTED_EDGE ( 'NONE', *, *, #152, .T. ) ;
#45 = LINE ( 'NONE', #181, #18 ) ;
#46 = CC_DESIGN_PERSON_AND_ORGANIZATION_ASSIGNMENT ( #213, #41, ( #125 ) ) ;
#47 = FACE_OUTER_BOUND ( 'NONE', #106, .T. ) ;
#48 = ORIENTED_EDGE ( 'NONE', *, *, #152, .F. ) ;
#49 = CARTESIAN_POINT ( 'NONE',  ( 0.000000000000000000, 0.000000000000000000, 107.0000000000000142 ) ) ;
#50 = CYLINDRICAL_SURFACE ( 'NONE', #96, 9.000000000000001776 ) ;
#51 = CARTESIAN_POINT ( 'NONE',  ( 0.000000000000000000, 0.000000000000000000, 107.0000000000000142 ) ) ;
#52 = FACE_OUTER_BOUND ( 'NONE', #217, .T. ) ;
#53 = LINE ( 'NONE', #151, #198 ) ;
#54 = EDGE_CURVE ( 'NONE', #176, #104, #240, .T. ) ;
#55 = APPROVAL_STATUS ( 'not_yet_approved' ) ;
#56 = APPROVAL_DATE_TIME ( #210, #113 ) ;
#57 = APPROVAL_STATUS ( 'not_yet_approved' ) ;
#58 = COORDINATED_UNIVERSAL_TIME_OFFSET ( 1, 0, .AHEAD. ) ;
#59 = CIRCLE ( 'NONE', #64, 9.000000000000001776 ) ;
#60 = CC_DESIGN_APPROVAL ( #14, ( #100 ) ) ;
#61 = APPLICATION_CONTEXT ( 'configuration controlled 3d designs of mechanical parts and assemblies' ) ;
#62 = CARTESIAN_POINT ( 'NONE',  ( 0.000000000000000000, 0.000000000000000000, 7.000000000000000000 ) ) ;
#63 = ORIENTED_EDGE ( 'NONE', *, *, #72, .F. ) ;
#64 = AXIS2_PLACEMENT_3D ( 'NONE', #91, #248, #227 ) ;
#65 = ORIENTED_EDGE ( 'NONE', *, *, #54, .T. ) ;
#66 = APPROVAL_PERSON_ORGANIZATION ( #245, #14, #154 ) ;
#67 = ORIENTED_EDGE ( 'NONE', *, *, #82, .T. ) ;
#68 = DIRECTION ( 'NONE',  ( 1.000000000000000000, 0.000000000000000000, 0.000000000000000000 ) ) ;
#69 = VERTEX_POINT ( 'NONE', #159 ) ;
#70 = DIRECTION ( 'NONE',  ( -0.000000000000000000, -0.000000000000000000, -1.000000000000000000 ) ) ;
#71 = ORIENTED_EDGE ( 'NONE', *, *, #24, .F. ) ;
#72 = EDGE_CURVE ( 'NONE', #84, #180, #29, .T. ) ;
#73 = FACE_OUTER_BOUND ( 'NONE', #255, .T. ) ;
#74 = CARTESIAN_POINT ( 'NONE',  ( 0.000000000000000000, 0.000000000000000000, 107.0000000000000142 ) ) ;
#75 = CARTESIAN_POINT ( 'NONE',  ( 9.000000000000001776, 1.102182119232617911E-15, 7.000000000000000000 ) ) ;
#76 = FACE_OUTER_BOUND ( 'NONE', #121, .T. ) ;
#77 = PERSON_AND_ORGANIZATION_ROLE ( 'classification_officer' ) ;
#78 = AXIS2_PLACEMENT_3D ( 'NONE', #85, #87, #68 ) ;
#79 = APPROVAL_PERSON_ORGANIZATION ( #115, #113, #229 ) ;
#80 = EDGE_CURVE ( 'NONE', #69, #84, #45, .T. ) ;
#81 = CALENDAR_DATE ( 2022, 7, 7 ) ;
#82 = EDGE_CURVE ( 'NONE', #145, #69, #83, .T. ) ;
#83 = CIRCLE ( 'NONE', #103, 12.00000000000000178 ) ;
#84 = VERTEX_POINT ( 'NONE', #26 ) ;
#85 = CARTESIAN_POINT ( 'NONE',  ( 0.000000000000000000, 0.000000000000000000, 0.000000000000000000 ) ) ;
#86 = ORIENTED_EDGE ( 'NONE', *, *, #234, .T. ) ;
#87 = DIRECTION ( 'NONE',  ( 0.000000000000000000, 0.000000000000000000, 1.000000000000000000 ) ) ;
#88 = ORIENTED_EDGE ( 'NONE', *, *, #82, .F. ) ;
#89 = DATE_TIME_ROLE ( 'creation_date' ) ;
#90 = AXIS2_PLACEMENT_3D ( 'NONE', #62, #241, #139 ) ;
#91 = CARTESIAN_POINT ( 'NONE',  ( 0.000000000000000000, 0.000000000000000000, 107.0000000000000142 ) ) ;
#92 = AXIS2_PLACEMENT_3D ( 'NONE', #220, #146, #25 ) ;
#93 = CARTESIAN_POINT ( 'NONE',  ( 0.000000000000000000, 0.000000000000000000, 107.0000000000000142 ) ) ;
#94 = AXIS2_PLACEMENT_3D ( 'NONE', #74, #165, #222 ) ;
#95 = CALENDAR_DATE ( 2022, 7, 7 ) ;
#96 = AXIS2_PLACEMENT_3D ( 'NONE', #49, #126, #124 ) ;
#97 = CC_DESIGN_SECURITY_CLASSIFICATION ( #134, ( #100 ) ) ;
#98 = PERSON_AND_ORGANIZATION_ROLE ( 'creator' ) ;
#99 = CARTESIAN_POINT ( 'NONE',  ( 0.000000000000000000, 0.000000000000000000, 7.000000000000000000 ) ) ;
#100 = PRODUCT_DEFINITION_FORMATION_WITH_SPECIFIED_SOURCE ( 'LIBOVOLNÝ', '', #125, .NOT_KNOWN. ) ;
#101 = DIRECTION ( 'NONE',  ( 0.000000000000000000, 0.000000000000000000, 1.000000000000000000 ) ) ;
#102 = ORIENTED_EDGE ( 'NONE', *, *, #54, .F. ) ;
#103 = AXIS2_PLACEMENT_3D ( 'NONE', #144, #200, #107 ) ;
#104 = VERTEX_POINT ( 'NONE', #184 ) ;
#105 = DIRECTION ( 'NONE',  ( -0.000000000000000000, -0.000000000000000000, -1.000000000000000000 ) ) ;
#106 = EDGE_LOOP ( 'NONE', ( #67, #157 ) ) ;
#107 = DIRECTION ( 'NONE',  ( 1.000000000000000000, 0.000000000000000000, 0.000000000000000000 ) ) ;
#108 = EDGE_CURVE ( 'NONE', #180, #84, #132, .T. ) ;
#109 =( NAMED_UNIT ( * ) PLANE_ANGLE_UNIT ( ) SI_UNIT ( $, .RADIAN. ) );
#110 = PLANE ( 'NONE',  #94 ) ;
#111 = DIRECTION ( 'NONE',  ( 1.000000000000000000, 0.000000000000000000, 0.000000000000000000 ) ) ;
#112 = PLANE ( 'NONE',  #141 ) ;
#113 = APPROVAL ( #57, 'NEURÈENÝ' ) ;
#114 = PERSON_AND_ORGANIZATION ( #10, #4 ) ;
#115 = PERSON_AND_ORGANIZATION ( #10, #4 ) ;
#116 = PERSON_AND_ORGANIZATION ( #10, #4 ) ;
#117 = CALENDAR_DATE ( 2022, 7, 7 ) ;
#118 = ORIENTED_EDGE ( 'NONE', *, *, #108, .F. ) ;
#119 = ORIENTED_EDGE ( 'NONE', *, *, #31, .F. ) ;
#120 = DIRECTION ( 'NONE',  ( 1.000000000000000000, 0.000000000000000000, -0.000000000000000000 ) ) ;
#121 = EDGE_LOOP ( 'NONE', ( #142, #178, #65, #1 ) ) ;
#122 = DIRECTION ( 'NONE',  ( 0.000000000000000000, 0.000000000000000000, 1.000000000000000000 ) ) ;
#123 = CYLINDRICAL_SURFACE ( 'NONE', #90, 12.00000000000000178 ) ;
#124 = DIRECTION ( 'NONE',  ( -1.000000000000000000, 0.000000000000000000, 0.000000000000000000 ) ) ;
#125 = PRODUCT ( 'a8df', 'a8df', '', ( #20 ) ) ;
#126 = DIRECTION ( 'NONE',  ( -0.000000000000000000, -0.000000000000000000, -1.000000000000000000 ) ) ;
#127 =( GEOMETRIC_REPRESENTATION_CONTEXT ( 3 ) GLOBAL_UNCERTAINTY_ASSIGNED_CONTEXT ( ( #168 ) ) GLOBAL_UNIT_ASSIGNED_CONTEXT ( ( #203, #109, #166 ) ) REPRESENTATION_CONTEXT ( 'NONE', 'WORKASPACE' ) );
#128 = CARTESIAN_POINT ( 'NONE',  ( -12.00000000000000178, 0.000000000000000000, 7.000000000000000000 ) ) ;
#129 = CARTESIAN_POINT ( 'NONE',  ( 0.000000000000000000, 0.000000000000000000, 0.000000000000000000 ) ) ;
#130 = PERSON_AND_ORGANIZATION ( #10, #4 ) ;
#131 = AXIS2_PLACEMENT_3D ( 'NONE', #221, #201, #161 ) ;
#132 = CIRCLE ( 'NONE', #9, 12.00000000000000178 ) ;
#133 = COORDINATED_UNIVERSAL_TIME_OFFSET ( 1, 0, .AHEAD. ) ;
#134 = SECURITY_CLASSIFICATION ( '', '', #19 ) ;
#135 = APPROVAL_DATE_TIME ( #211, #14 ) ;
#136 = ADVANCED_FACE ( 'NONE', ( #76 ), #228, .T. ) ;
#137 = PRODUCT_RELATED_PRODUCT_CATEGORY ( 'detail', '', ( #125 ) ) ;
#138 = APPLICATION_PROTOCOL_DEFINITION ( 'international standard', 'config_control_design', 1994, #202 ) ;
#139 = DIRECTION ( 'NONE',  ( -1.000000000000000000, 0.000000000000000000, 0.000000000000000000 ) ) ;
#140 = EDGE_LOOP ( 'NONE', ( #118, #63 ) ) ;
#141 = AXIS2_PLACEMENT_3D ( 'NONE', #148, #204, #224 ) ;
#142 = ORIENTED_EDGE ( 'NONE', *, *, #234, .F. ) ;
#143 = EDGE_LOOP ( 'NONE', ( #71, #238, #177, #48 ) ) ;
#144 = CARTESIAN_POINT ( 'NONE',  ( 0.000000000000000000, 0.000000000000000000, 7.000000000000000000 ) ) ;
#145 = VERTEX_POINT ( 'NONE', #223 ) ;
#146 = DIRECTION ( 'NONE',  ( -0.000000000000000000, -0.000000000000000000, -1.000000000000000000 ) ) ;
#147 = DIRECTION ( 'NONE',  ( 0.000000000000000000, 0.000000000000000000, 1.000000000000000000 ) ) ;
#148 = CARTESIAN_POINT ( 'NONE',  ( 0.000000000000000000, 0.000000000000000000, 0.000000000000000000 ) ) ;
#149 = APPROVAL_PERSON_ORGANIZATION ( #215, #247, #39 ) ;
#150 = DIRECTION ( 'NONE',  ( -0.000000000000000000, -0.000000000000000000, -1.000000000000000000 ) ) ;
#151 = CARTESIAN_POINT ( 'NONE',  ( 9.000000000000001776, 1.102182119232617911E-15, 107.0000000000000142 ) ) ;
#152 = EDGE_CURVE ( 'NONE', #145, #180, #32, .T. ) ;
#153 = DATE_AND_TIME ( #209, #185 ) ;
#154 = APPROVAL_ROLE ( '' ) ;
#155 = DATE_AND_TIME ( #81, #243 ) ;
#156 = AXIS2_PLACEMENT_3D ( 'NONE', #43, #147, #27 ) ;
#157 = ORIENTED_EDGE ( 'NONE', *, *, #24, .T. ) ;
#158 = ORIENTED_EDGE ( 'NONE', *, *, #232, .F. ) ;
#159 = CARTESIAN_POINT ( 'NONE',  ( 12.00000000000000178, 1.469576158976824144E-15, 7.000000000000000000 ) ) ;
#160 = ORIENTED_EDGE ( 'NONE', *, *, #80, .F. ) ;
#161 = DIRECTION ( 'NONE',  ( 1.000000000000000000, 0.000000000000000000, 0.000000000000000000 ) ) ;
#162 = DIRECTION ( 'NONE',  ( 1.000000000000000000, 0.000000000000000000, 0.000000000000000000 ) ) ;
#163 = AXIS2_PLACEMENT_3D ( 'NONE', #3, #122, #120 ) ;
#164 = CC_DESIGN_APPROVAL ( #113, ( #134 ) ) ;
#165 = DIRECTION ( 'NONE',  ( 0.000000000000000000, 0.000000000000000000, 1.000000000000000000 ) ) ;
#166 =( NAMED_UNIT ( * ) SI_UNIT ( $, .STERADIAN. ) SOLID_ANGLE_UNIT ( ) );
#167 = DIRECTION ( 'NONE',  ( -0.000000000000000000, -0.000000000000000000, -1.000000000000000000 ) ) ;
#168 = UNCERTAINTY_MEASURE_WITH_UNIT (LENGTH_MEASURE( 1.000000000000000082E-05 ), #203, 'distance_accuracy_value', 'NONE');
#169 = DIRECTION ( 'NONE',  ( -1.000000000000000000, 0.000000000000000000, 0.000000000000000000 ) ) ;
#170 = CC_DESIGN_APPROVAL ( #247, ( #40 ) ) ;
#171 = PERSON_AND_ORGANIZATION ( #10, #4 ) ;
#172 = DESIGN_CONTEXT ( 'detailed design', #202, 'design' ) ;
#173 = EDGE_CURVE ( 'NONE', #176, #182, #30, .T. ) ;
#174 = COORDINATED_UNIVERSAL_TIME_OFFSET ( 1, 0, .AHEAD. ) ;
#175 = CARTESIAN_POINT ( 'NONE',  ( 0.000000000000000000, 0.000000000000000000, 0.000000000000000000 ) ) ;
#176 = VERTEX_POINT ( 'NONE', #186 ) ;
#177 = ORIENTED_EDGE ( 'NONE', *, *, #72, .T. ) ;
#178 = ORIENTED_EDGE ( 'NONE', *, *, #173, .F. ) ;
#179 = CYLINDRICAL_SURFACE ( 'NONE', #92, 12.00000000000000178 ) ;
#180 = VERTEX_POINT ( 'NONE', #12 ) ;
#181 = CARTESIAN_POINT ( 'NONE',  ( 12.00000000000000178, 1.469576158976824144E-15, 7.000000000000000000 ) ) ;
#182 = VERTEX_POINT ( 'NONE', #207 ) ;
#183 = ADVANCED_BREP_SHAPE_REPRESENTATION ( 'a8df', ( #252, #225 ), #127 ) ;
#184 = CARTESIAN_POINT ( 'NONE',  ( -9.000000000000001776, 0.000000000000000000, 7.000000000000000000 ) ) ;
#185 = LOCAL_TIME ( 19, 5, 42.00000000000000000, #133 ) ;
#186 = CARTESIAN_POINT ( 'NONE',  ( -9.000000000000001776, 0.000000000000000000, 107.0000000000000142 ) ) ;
#187 = DIRECTION ( 'NONE',  ( 0.000000000000000000, 0.000000000000000000, 1.000000000000000000 ) ) ;
#188 = COORDINATED_UNIVERSAL_TIME_OFFSET ( 1, 0, .AHEAD. ) ;
#189 = CC_DESIGN_DATE_AND_TIME_ASSIGNMENT ( #153, #38, ( #134 ) ) ;
#190 = DATE_AND_TIME ( #117, #226 ) ;
#191 = APPLICATION_PROTOCOL_DEFINITION ( 'international standard', 'config_control_design', 1994, #61 ) ;
#192 = VECTOR ( 'NONE', #105, 1000.000000000000000 ) ;
#193 = FACE_OUTER_BOUND ( 'NONE', #21, .T. ) ;
#194 = ORIENTED_EDGE ( 'NONE', *, *, #232, .T. ) ;
#195 = CIRCLE ( 'NONE', #231, 9.000000000000001776 ) ;
#196 = CC_DESIGN_PERSON_AND_ORGANIZATION_ASSIGNMENT ( #116, #98, ( #40 ) ) ;
#197 = FACE_OUTER_BOUND ( 'NONE', #143, .T. ) ;
#198 = VECTOR ( 'NONE', #167, 1000.000000000000000 ) ;
#199 = PRODUCT_DEFINITION_SHAPE ( 'NONE', 'NONE',  #40 ) ;
#200 = DIRECTION ( 'NONE',  ( 0.000000000000000000, 0.000000000000000000, 1.000000000000000000 ) ) ;
#201 = DIRECTION ( 'NONE',  ( 0.000000000000000000, 0.000000000000000000, 1.000000000000000000 ) ) ;
#202 = APPLICATION_CONTEXT ( 'configuration controlled 3d designs of mechanical parts and assemblies' ) ;
#203 =( LENGTH_UNIT ( ) NAMED_UNIT ( * ) SI_UNIT ( .MILLI., .METRE. ) );
#204 = DIRECTION ( 'NONE',  ( 0.000000000000000000, 0.000000000000000000, 1.000000000000000000 ) ) ;
#205 = AXIS2_PLACEMENT_3D ( 'NONE', #51, #150, #169 ) ;
#206 = DIRECTION ( 'NONE',  ( 0.000000000000000000, 0.000000000000000000, 1.000000000000000000 ) ) ;
#207 = CARTESIAN_POINT ( 'NONE',  ( 9.000000000000001776, 1.102182119232617911E-15, 107.0000000000000142 ) ) ;
#208 = CIRCLE ( 'NONE', #131, 9.000000000000001776 ) ;
#209 = CALENDAR_DATE ( 2022, 7, 7 ) ;
#210 = DATE_AND_TIME ( #95, #22 ) ;
#211 = DATE_AND_TIME ( #34, #37 ) ;
#212 = APPROVAL_STATUS ( 'not_yet_approved' ) ;
#213 = PERSON_AND_ORGANIZATION ( #10, #4 ) ;
#214 = CC_DESIGN_PERSON_AND_ORGANIZATION_ASSIGNMENT ( #114, #77, ( #134 ) ) ;
#215 = PERSON_AND_ORGANIZATION ( #10, #4 ) ;
#216 = VECTOR ( 'NONE', #15, 1000.000000000000000 ) ;
#217 = EDGE_LOOP ( 'NONE', ( #7, #194 ) ) ;
#218 = CARTESIAN_POINT ( 'NONE',  ( -9.000000000000001776, 0.000000000000000000, 107.0000000000000142 ) ) ;
#219 = CC_DESIGN_PERSON_AND_ORGANIZATION_ASSIGNMENT ( #171, #249, ( #100 ) ) ;
#220 = CARTESIAN_POINT ( 'NONE',  ( 0.000000000000000000, 0.000000000000000000, 7.000000000000000000 ) ) ;
#221 = CARTESIAN_POINT ( 'NONE',  ( 0.000000000000000000, 0.000000000000000000, 7.000000000000000000 ) ) ;
#222 = DIRECTION ( 'NONE',  ( 1.000000000000000000, 0.000000000000000000, -0.000000000000000000 ) ) ;
#223 = CARTESIAN_POINT ( 'NONE',  ( -12.00000000000000178, 0.000000000000000000, 7.000000000000000000 ) ) ;
#224 = DIRECTION ( 'NONE',  ( 1.000000000000000000, 0.000000000000000000, -0.000000000000000000 ) ) ;
#225 = AXIS2_PLACEMENT_3D ( 'NONE', #175, #233, #253 ) ;
#226 = LOCAL_TIME ( 19, 5, 42.00000000000000000, #58 ) ;
#227 = DIRECTION ( 'NONE',  ( 1.000000000000000000, 0.000000000000000000, 0.000000000000000000 ) ) ;
#228 = CYLINDRICAL_SURFACE ( 'NONE', #205, 9.000000000000001776 ) ;
#229 = APPROVAL_ROLE ( '' ) ;
#230 = COORDINATED_UNIVERSAL_TIME_OFFSET ( 1, 0, .AHEAD. ) ;
#231 = AXIS2_PLACEMENT_3D ( 'NONE', #99, #101, #162 ) ;
#232 = EDGE_CURVE ( 'NONE', #182, #176, #59, .T. ) ;
#233 = DIRECTION ( 'NONE',  ( 0.000000000000000000, 0.000000000000000000, 1.000000000000000000 ) ) ;
#234 = EDGE_CURVE ( 'NONE', #182, #235, #53, .T. ) ;
#235 = VERTEX_POINT ( 'NONE', #75 ) ;
#236 = ADVANCED_FACE ( 'NONE', ( #33 ), #112, .F. ) ;
#237 = ORIENTED_EDGE ( 'NONE', *, *, #17, .F. ) ;
#238 = ORIENTED_EDGE ( 'NONE', *, *, #80, .T. ) ;
#239 = PLANE ( 'NONE',  #163 ) ;
#240 = LINE ( 'NONE', #218, #192 ) ;
#241 = DIRECTION ( 'NONE',  ( -0.000000000000000000, -0.000000000000000000, -1.000000000000000000 ) ) ;
#242 = ADVANCED_FACE ( 'NONE', ( #52 ), #110, .T. ) ;
#243 = LOCAL_TIME ( 19, 5, 42.00000000000000000, #174 ) ;
#244 = ADVANCED_FACE ( 'NONE', ( #73 ), #50, .T. ) ;
#245 = PERSON_AND_ORGANIZATION ( #10, #4 ) ;
#246 = DIRECTION ( 'NONE',  ( 1.000000000000000000, 0.000000000000000000, 0.000000000000000000 ) ) ;
#247 = APPROVAL ( #212, 'NEURÈENÝ' ) ;
#248 = DIRECTION ( 'NONE',  ( 0.000000000000000000, 0.000000000000000000, 1.000000000000000000 ) ) ;
#249 = PERSON_AND_ORGANIZATION_ROLE ( 'creator' ) ;
#250 = AXIS2_PLACEMENT_3D ( 'NONE', #93, #206, #111 ) ;
#251 = APPROVAL_DATE_TIME ( #190, #247 ) ;
#252 = MANIFOLD_SOLID_BREP ( 'Pøidat vysunutím3', #8 ) ;
#253 = DIRECTION ( 'NONE',  ( 1.000000000000000000, 0.000000000000000000, 0.000000000000000000 ) ) ;
#254 = CC_DESIGN_DATE_AND_TIME_ASSIGNMENT ( #155, #89, ( #40 ) ) ;
#255 = EDGE_LOOP ( 'NONE', ( #158, #86, #5, #102 ) ) ;
ENDSEC;
END-ISO-10303-21;
