ISO-10303-21;
HEADER;
FILE_DESCRIPTION (( 'STEP AP203' ),
    '1' );
FILE_NAME ('dc5d.STEP',
    '2022-07-07T17:21:23',
    ( '' ),
    ( '' ),
    'SwSTEP 2.0',
    'SolidWorks 2019',
    '' );
FILE_SCHEMA (( 'CONFIG_CONTROL_DESIGN' ));
ENDSEC;

DATA;
#1 = DIRECTION ( 'NONE',  ( -1.000000000000000000, 0.000000000000000000, 0.000000000000000000 ) ) ;
#2 = DIRECTION ( 'NONE',  ( -0.000000000000000000, -0.000000000000000000, -1.000000000000000000 ) ) ;
#3 = VERTEX_POINT ( 'NONE', #125 ) ;
#4 = EDGE_LOOP ( 'NONE', ( #23, #222, #153, #9 ) ) ;
#5 = AXIS2_PLACEMENT_3D ( 'NONE', #21, #75, #95 ) ;
#6 = CIRCLE ( 'NONE', #115, 9.000000000000000000 ) ;
#7 = EDGE_LOOP ( 'NONE', ( #55, #119 ) ) ;
#8 = AXIS2_PLACEMENT_3D ( 'NONE', #19, #218, #77 ) ;
#9 = ORIENTED_EDGE ( 'NONE', *, *, #236, .T. ) ;
#10 = DIRECTION ( 'NONE',  ( 0.000000000000000000, 0.000000000000000000, 1.000000000000000000 ) ) ;
#11 = CIRCLE ( 'NONE', #212, 5.750000000000000000 ) ;
#12 = PLANE ( 'NONE',  #200 ) ;
#13 = PERSON_AND_ORGANIZATION ( #61, #63 ) ;
#14 = PERSON_AND_ORGANIZATION_ROLE ( 'classification_officer' ) ;
#15 = APPROVAL_DATE_TIME ( #113, #76 ) ;
#16 = PRODUCT_DEFINITION ( 'NEZNÁMÝ', '', #54, #155 ) ;
#17 = VECTOR ( 'NONE', #143, 1000.000000000000000 ) ;
#18 = CC_DESIGN_PERSON_AND_ORGANIZATION_ASSIGNMENT ( #192, #249, ( #54 ) ) ;
#19 = CARTESIAN_POINT ( 'NONE',  ( 0.000000000000000000, 0.000000000000000000, 167.0000000000000000 ) ) ;
#20 = EDGE_CURVE ( 'NONE', #38, #157, #189, .T. ) ;
#21 = CARTESIAN_POINT ( 'NONE',  ( 0.000000000000000000, 0.000000000000000000, 0.000000000000000000 ) ) ;
#22 = CARTESIAN_POINT ( 'NONE',  ( 0.000000000000000000, 0.000000000000000000, 167.0000000000000000 ) ) ;
#23 = ORIENTED_EDGE ( 'NONE', *, *, #56, .F. ) ;
#24 = SECURITY_CLASSIFICATION ( '', '', #40 ) ;
#25 = DIRECTION ( 'NONE',  ( -1.000000000000000000, 0.000000000000000000, 0.000000000000000000 ) ) ;
#26 = LOCAL_TIME ( 19, 21, 23.00000000000000000, #48 ) ;
#27 = AXIS2_PLACEMENT_3D ( 'NONE', #84, #183, #224 ) ;
#28 = EDGE_CURVE ( 'NONE', #3, #81, #139, .T. ) ;
#29 = CIRCLE ( 'NONE', #165, 5.750000000000000000 ) ;
#30 = DIRECTION ( 'NONE',  ( 1.000000000000000000, 0.000000000000000000, -0.000000000000000000 ) ) ;
#31 = APPLICATION_CONTEXT ( 'configuration controlled 3d designs of mechanical parts and assemblies' ) ;
#32 = DIRECTION ( 'NONE',  ( 1.000000000000000000, 0.000000000000000000, 0.000000000000000000 ) ) ;
#33 = AXIS2_PLACEMENT_3D ( 'NONE', #96, #235, #1 ) ;
#34 = DIRECTION ( 'NONE',  ( 1.000000000000000000, 0.000000000000000000, 0.000000000000000000 ) ) ;
#35 = PERSON_AND_ORGANIZATION ( #61, #63 ) ;
#36 = LINE ( 'NONE', #210, #126 ) ;
#37 = PERSON_AND_ORGANIZATION_ROLE ( 'creator' ) ;
#38 = VERTEX_POINT ( 'NONE', #227 ) ;
#39 = EDGE_CURVE ( 'NONE', #103, #182, #11, .T. ) ;
#40 = SECURITY_CLASSIFICATION_LEVEL ( 'unclassified' ) ;
#41 = DATE_AND_TIME ( #147, #26 ) ;
#42 = LOCAL_TIME ( 19, 21, 23.00000000000000000, #72 ) ;
#43 = DIRECTION ( 'NONE',  ( -0.000000000000000000, -0.000000000000000000, -1.000000000000000000 ) ) ;
#44 = DIRECTION ( 'NONE',  ( -1.000000000000000000, 0.000000000000000000, 0.000000000000000000 ) ) ;
#45 = ORIENTED_EDGE ( 'NONE', *, *, #120, .F. ) ;
#46 = FACE_OUTER_BOUND ( 'NONE', #123, .T. ) ;
#47 = CARTESIAN_POINT ( 'NONE',  ( 0.000000000000000000, 0.000000000000000000, 7.000000000000000000 ) ) ;
#48 = COORDINATED_UNIVERSAL_TIME_OFFSET ( 1, 0, .AHEAD. ) ;
#49 = FACE_BOUND ( 'NONE', #177, .T. ) ;
#50 = DATE_AND_TIME ( #169, #67 ) ;
#51 = CALENDAR_DATE ( 2022, 7, 7 ) ;
#52 = DIRECTION ( 'NONE',  ( -1.000000000000000000, 0.000000000000000000, 0.000000000000000000 ) ) ;
#53 = FACE_OUTER_BOUND ( 'NONE', #85, .T. ) ;
#54 = PRODUCT_DEFINITION_FORMATION_WITH_SPECIFIED_SOURCE ( 'LIBOVOLNÝ', '', #105, .NOT_KNOWN. ) ;
#55 = ORIENTED_EDGE ( 'NONE', *, *, #102, .T. ) ;
#56 = EDGE_CURVE ( 'NONE', #3, #103, #245, .T. ) ;
#57 =( NAMED_UNIT ( * ) SI_UNIT ( $, .STERADIAN. ) SOLID_ANGLE_UNIT ( ) );
#58 = CC_DESIGN_PERSON_AND_ORGANIZATION_ASSIGNMENT ( #91, #214, ( #105 ) ) ;
#59 = CLOSED_SHELL ( 'NONE', ( #199, #167, #79, #135, #68, #202, #217 ) ) ;
#60 = APPROVAL_PERSON_ORGANIZATION ( #190, #140, #92 ) ;
#61 = PERSON ( 'NEURÈENÝ', 'NEURÈENÝ', 'NEURÈENÝ', ('NEURÈENÝ'), ('NEURÈENÝ'), ('NEURÈENÝ') ) ;
#62 = EDGE_LOOP ( 'NONE', ( #204, #221, #246, #45 ) ) ;
#63 = ORGANIZATION ( 'NEURÈENÝ', 'NEURÈENÝ', '' ) ;
#64 = ORIENTED_EDGE ( 'NONE', *, *, #120, .T. ) ;
#65 = DIRECTION ( 'NONE',  ( 1.000000000000000000, 0.000000000000000000, -0.000000000000000000 ) ) ;
#66 = DIRECTION ( 'NONE',  ( 0.000000000000000000, 0.000000000000000000, 1.000000000000000000 ) ) ;
#67 = LOCAL_TIME ( 19, 21, 23.00000000000000000, #145 ) ;
#68 = ADVANCED_FACE ( 'NONE', ( #46 ), #106, .F. ) ;
#69 = PERSON_AND_ORGANIZATION ( #61, #63 ) ;
#70 = CARTESIAN_POINT ( 'NONE',  ( 5.750000000000000000, 7.041719095097280880E-16, 167.0000000000000000 ) ) ;
#71 = APPROVAL_DATE_TIME ( #41, #178 ) ;
#72 = COORDINATED_UNIVERSAL_TIME_OFFSET ( 1, 0, .AHEAD. ) ;
#73 = AXIS2_PLACEMENT_3D ( 'NONE', #150, #43, #44 ) ;
#74 = DIRECTION ( 'NONE',  ( 1.000000000000000000, 0.000000000000000000, 0.000000000000000000 ) ) ;
#75 = DIRECTION ( 'NONE',  ( 0.000000000000000000, 0.000000000000000000, 1.000000000000000000 ) ) ;
#76 = APPROVAL ( #253, 'NEURÈENÝ' ) ;
#77 = DIRECTION ( 'NONE',  ( 1.000000000000000000, 0.000000000000000000, 0.000000000000000000 ) ) ;
#78 = PLANE ( 'NONE',  #94 ) ;
#79 = ADVANCED_FACE ( 'NONE', ( #142 ), #141, .T. ) ;
#80 = DIRECTION ( 'NONE',  ( 0.000000000000000000, 0.000000000000000000, 1.000000000000000000 ) ) ;
#81 = VERTEX_POINT ( 'NONE', #159 ) ;
#82 = ORIENTED_EDGE ( 'NONE', *, *, #236, .F. ) ;
#83 = PRODUCT_RELATED_PRODUCT_CATEGORY ( 'detail', '', ( #105 ) ) ;
#84 = CARTESIAN_POINT ( 'NONE',  ( 0.000000000000000000, 0.000000000000000000, 7.000000000000000000 ) ) ;
#85 = EDGE_LOOP ( 'NONE', ( #244, #184 ) ) ;
#86 = ORIENTED_EDGE ( 'NONE', *, *, #20, .F. ) ;
#87 = CARTESIAN_POINT ( 'NONE',  ( 9.000000000000000000, 1.102182119232617714E-15, 7.000000000000000000 ) ) ;
#88 = ORIENTED_EDGE ( 'NONE', *, *, #28, .F. ) ;
#89 = ADVANCED_BREP_SHAPE_REPRESENTATION ( 'dc5d', ( #112, #254 ), #175 ) ;
#90 = CARTESIAN_POINT ( 'NONE',  ( 0.000000000000000000, 0.000000000000000000, 7.000000000000000000 ) ) ;
#91 = PERSON_AND_ORGANIZATION ( #61, #63 ) ;
#92 = APPROVAL_ROLE ( '' ) ;
#93 = EDGE_CURVE ( 'NONE', #81, #182, #243, .T. ) ;
#94 = AXIS2_PLACEMENT_3D ( 'NONE', #197, #173, #132 ) ;
#95 = DIRECTION ( 'NONE',  ( 1.000000000000000000, 0.000000000000000000, 0.000000000000000000 ) ) ;
#96 = CARTESIAN_POINT ( 'NONE',  ( 0.000000000000000000, 0.000000000000000000, 167.0000000000000000 ) ) ;
#97 = AXIS2_PLACEMENT_3D ( 'NONE', #122, #66, #32 ) ;
#98 = FACE_OUTER_BOUND ( 'NONE', #4, .T. ) ;
#99 = CC_DESIGN_PERSON_AND_ORGANIZATION_ASSIGNMENT ( #35, #37, ( #54 ) ) ;
#100 = APPLICATION_PROTOCOL_DEFINITION ( 'international standard', 'config_control_design', 1994, #194 ) ;
#101 = ORIENTED_EDGE ( 'NONE', *, *, #93, .F. ) ;
#102 = EDGE_CURVE ( 'NONE', #131, #38, #156, .T. ) ;
#103 = VERTEX_POINT ( 'NONE', #226 ) ;
#104 = CARTESIAN_POINT ( 'NONE',  ( 9.000000000000000000, 1.102182119232617714E-15, 0.000000000000000000 ) ) ;
#105 = PRODUCT ( 'dc5d', 'dc5d', '', ( #176 ) ) ;
#106 = PLANE ( 'NONE',  #247 ) ;
#107 = DIRECTION ( 'NONE',  ( -0.000000000000000000, -0.000000000000000000, -1.000000000000000000 ) ) ;
#108 = DATE_TIME_ROLE ( 'classification_date' ) ;
#109 = FACE_OUTER_BOUND ( 'NONE', #7, .T. ) ;
#110 = SHAPE_DEFINITION_REPRESENTATION ( #181, #89 ) ;
#111 = APPROVAL_STATUS ( 'not_yet_approved' ) ;
#112 = MANIFOLD_SOLID_BREP ( 'Pøidat vysunutím3', #59 ) ;
#113 = DATE_AND_TIME ( #130, #129 ) ;
#114 = FACE_OUTER_BOUND ( 'NONE', #228, .T. ) ;
#115 = AXIS2_PLACEMENT_3D ( 'NONE', #174, #80, #117 ) ;
#116 = EDGE_CURVE ( 'NONE', #128, #157, #232, .T. ) ;
#117 = DIRECTION ( 'NONE',  ( 1.000000000000000000, 0.000000000000000000, 0.000000000000000000 ) ) ;
#118 = CC_DESIGN_PERSON_AND_ORGANIZATION_ASSIGNMENT ( #69, #14, ( #24 ) ) ;
#119 = ORIENTED_EDGE ( 'NONE', *, *, #187, .T. ) ;
#120 = EDGE_CURVE ( 'NONE', #131, #128, #36, .T. ) ;
#121 = CARTESIAN_POINT ( 'NONE',  ( 0.000000000000000000, 0.000000000000000000, 0.000000000000000000 ) ) ;
#122 = CARTESIAN_POINT ( 'NONE',  ( 0.000000000000000000, 0.000000000000000000, 167.0000000000000000 ) ) ;
#123 = EDGE_LOOP ( 'NONE', ( #240, #161 ) ) ;
#124 = CALENDAR_DATE ( 2022, 7, 7 ) ;
#125 = CARTESIAN_POINT ( 'NONE',  ( 5.750000000000000000, 7.041719095097280880E-16, 167.0000000000000000 ) ) ;
#126 = VECTOR ( 'NONE', #144, 1000.000000000000000 ) ;
#127 = COORDINATED_UNIVERSAL_TIME_OFFSET ( 1, 0, .AHEAD. ) ;
#128 = VERTEX_POINT ( 'NONE', #225 ) ;
#129 = LOCAL_TIME ( 19, 21, 23.00000000000000000, #233 ) ;
#130 = CALENDAR_DATE ( 2022, 7, 7 ) ;
#131 = VERTEX_POINT ( 'NONE', #186 ) ;
#132 = DIRECTION ( 'NONE',  ( 1.000000000000000000, 0.000000000000000000, -0.000000000000000000 ) ) ;
#133 = AXIS2_PLACEMENT_3D ( 'NONE', #230, #107, #52 ) ;
#134 = CARTESIAN_POINT ( 'NONE',  ( 0.000000000000000000, 0.000000000000000000, 0.000000000000000000 ) ) ;
#135 = ADVANCED_FACE ( 'NONE', ( #49, #109 ), #12, .T. ) ;
#136 = EDGE_LOOP ( 'NONE', ( #86, #151, #64, #166 ) ) ;
#137 = APPROVAL_PERSON_ORGANIZATION ( #168, #178, #252 ) ;
#138 = UNCERTAINTY_MEASURE_WITH_UNIT (LENGTH_MEASURE( 1.000000000000000082E-05 ), #234, 'distance_accuracy_value', 'NONE');
#139 = CIRCLE ( 'NONE', #97, 5.750000000000000000 ) ;
#140 = APPROVAL ( #111, 'NEURÈENÝ' ) ;
#141 = CYLINDRICAL_SURFACE ( 'NONE', #133, 9.000000000000000000 ) ;
#142 = FACE_OUTER_BOUND ( 'NONE', #136, .T. ) ;
#143 = DIRECTION ( 'NONE',  ( -0.000000000000000000, -0.000000000000000000, -1.000000000000000000 ) ) ;
#144 = DIRECTION ( 'NONE',  ( -0.000000000000000000, -0.000000000000000000, -1.000000000000000000 ) ) ;
#145 = COORDINATED_UNIVERSAL_TIME_OFFSET ( 1, 0, .AHEAD. ) ;
#146 = DIRECTION ( 'NONE',  ( 0.000000000000000000, 0.000000000000000000, 1.000000000000000000 ) ) ;
#147 = CALENDAR_DATE ( 2022, 7, 7 ) ;
#148 = APPROVAL_ROLE ( '' ) ;
#149 = CARTESIAN_POINT ( 'NONE',  ( -5.750000000000000000, 0.000000000000000000, 7.000000000000000000 ) ) ;
#150 = CARTESIAN_POINT ( 'NONE',  ( 0.000000000000000000, 0.000000000000000000, 7.000000000000000000 ) ) ;
#151 = ORIENTED_EDGE ( 'NONE', *, *, #102, .F. ) ;
#152 = CARTESIAN_POINT ( 'NONE',  ( 0.000000000000000000, 0.000000000000000000, 7.000000000000000000 ) ) ;
#153 = ORIENTED_EDGE ( 'NONE', *, *, #93, .T. ) ;
#154 = ORIENTED_EDGE ( 'NONE', *, *, #39, .T. ) ;
#155 = DESIGN_CONTEXT ( 'detailed design', #31, 'design' ) ;
#156 = CIRCLE ( 'NONE', #27, 9.000000000000000000 ) ;
#157 = VERTEX_POINT ( 'NONE', #104 ) ;
#158 = CC_DESIGN_APPROVAL ( #76, ( #24 ) ) ;
#159 = CARTESIAN_POINT ( 'NONE',  ( -5.750000000000000000, 0.000000000000000000, 167.0000000000000000 ) ) ;
#160 = DIRECTION ( 'NONE',  ( -0.000000000000000000, -0.000000000000000000, -1.000000000000000000 ) ) ;
#161 = ORIENTED_EDGE ( 'NONE', *, *, #242, .F. ) ;
#162 = AXIS2_PLACEMENT_3D ( 'NONE', #206, #10, #248 ) ;
#163 = DIRECTION ( 'NONE',  ( -0.000000000000000000, -0.000000000000000000, -1.000000000000000000 ) ) ;
#164 = DATE_TIME_ROLE ( 'creation_date' ) ;
#165 = AXIS2_PLACEMENT_3D ( 'NONE', #152, #237, #74 ) ;
#166 = ORIENTED_EDGE ( 'NONE', *, *, #116, .T. ) ;
#167 = ADVANCED_FACE ( 'NONE', ( #171 ), #255, .T. ) ;
#168 = PERSON_AND_ORGANIZATION ( #61, #63 ) ;
#169 = CALENDAR_DATE ( 2022, 7, 7 ) ;
#170 = PERSON_AND_ORGANIZATION_ROLE ( 'creator' ) ;
#171 = FACE_OUTER_BOUND ( 'NONE', #62, .T. ) ;
#172 = LOCAL_TIME ( 19, 21, 23.00000000000000000, #127 ) ;
#173 = DIRECTION ( 'NONE',  ( 0.000000000000000000, 0.000000000000000000, 1.000000000000000000 ) ) ;
#174 = CARTESIAN_POINT ( 'NONE',  ( 0.000000000000000000, 0.000000000000000000, 7.000000000000000000 ) ) ;
#175 =( GEOMETRIC_REPRESENTATION_CONTEXT ( 3 ) GLOBAL_UNCERTAINTY_ASSIGNED_CONTEXT ( ( #138 ) ) GLOBAL_UNIT_ASSIGNED_CONTEXT ( ( #234, #215, #57 ) ) REPRESENTATION_CONTEXT ( 'NONE', 'WORKASPACE' ) );
#176 = MECHANICAL_CONTEXT ( 'NONE', #194, 'mechanical' ) ;
#177 = EDGE_LOOP ( 'NONE', ( #82, #207 ) ) ;
#178 = APPROVAL ( #231, 'NEURÈENÝ' ) ;
#179 = CC_DESIGN_DATE_AND_TIME_ASSIGNMENT ( #50, #108, ( #24 ) ) ;
#180 = CC_DESIGN_APPROVAL ( #140, ( #54 ) ) ;
#181 = PRODUCT_DEFINITION_SHAPE ( 'NONE', 'NONE',  #16 ) ;
#182 = VERTEX_POINT ( 'NONE', #149 ) ;
#183 = DIRECTION ( 'NONE',  ( 0.000000000000000000, 0.000000000000000000, 1.000000000000000000 ) ) ;
#184 = ORIENTED_EDGE ( 'NONE', *, *, #28, .T. ) ;
#185 = CIRCLE ( 'NONE', #8, 5.750000000000000000 ) ;
#186 = CARTESIAN_POINT ( 'NONE',  ( -9.000000000000000000, 0.000000000000000000, 7.000000000000000000 ) ) ;
#187 = EDGE_CURVE ( 'NONE', #38, #131, #6, .T. ) ;
#188 = CARTESIAN_POINT ( 'NONE',  ( -5.750000000000000000, 0.000000000000000000, 167.0000000000000000 ) ) ;
#189 = LINE ( 'NONE', #87, #216 ) ;
#190 = PERSON_AND_ORGANIZATION ( #61, #63 ) ;
#191 = EDGE_CURVE ( 'NONE', #81, #3, #185, .T. ) ;
#192 = PERSON_AND_ORGANIZATION ( #61, #63 ) ;
#193 = APPLICATION_PROTOCOL_DEFINITION ( 'international standard', 'config_control_design', 1994, #31 ) ;
#194 = APPLICATION_CONTEXT ( 'configuration controlled 3d designs of mechanical parts and assemblies' ) ;
#195 = CYLINDRICAL_SURFACE ( 'NONE', #33, 5.750000000000000000 ) ;
#196 = APPROVAL_PERSON_ORGANIZATION ( #229, #76, #148 ) ;
#197 = CARTESIAN_POINT ( 'NONE',  ( 0.000000000000000000, 0.000000000000000000, 167.0000000000000000 ) ) ;
#198 = CYLINDRICAL_SURFACE ( 'NONE', #223, 5.750000000000000000 ) ;
#199 = ADVANCED_FACE ( 'NONE', ( #114 ), #198, .T. ) ;
#200 = AXIS2_PLACEMENT_3D ( 'NONE', #90, #250, #30 ) ;
#201 = DIRECTION ( 'NONE',  ( 1.000000000000000000, 0.000000000000000000, 0.000000000000000000 ) ) ;
#202 = ADVANCED_FACE ( 'NONE', ( #98 ), #195, .T. ) ;
#203 = CIRCLE ( 'NONE', #5, 9.000000000000000000 ) ;
#204 = ORIENTED_EDGE ( 'NONE', *, *, #187, .F. ) ;
#205 = CC_DESIGN_SECURITY_CLASSIFICATION ( #24, ( #54 ) ) ;
#206 = CARTESIAN_POINT ( 'NONE',  ( 0.000000000000000000, 0.000000000000000000, 0.000000000000000000 ) ) ;
#207 = ORIENTED_EDGE ( 'NONE', *, *, #39, .F. ) ;
#208 = DIRECTION ( 'NONE',  ( 0.000000000000000000, 0.000000000000000000, 1.000000000000000000 ) ) ;
#209 = DATE_AND_TIME ( #51, #172 ) ;
#210 = CARTESIAN_POINT ( 'NONE',  ( -9.000000000000000000, 0.000000000000000000, 7.000000000000000000 ) ) ;
#211 = APPROVAL_DATE_TIME ( #213, #140 ) ;
#212 = AXIS2_PLACEMENT_3D ( 'NONE', #47, #208, #34 ) ;
#213 = DATE_AND_TIME ( #124, #42 ) ;
#214 = PERSON_AND_ORGANIZATION_ROLE ( 'design_owner' ) ;
#215 =( NAMED_UNIT ( * ) PLANE_ANGLE_UNIT ( ) SI_UNIT ( $, .RADIAN. ) );
#216 = VECTOR ( 'NONE', #160, 1000.000000000000000 ) ;
#217 = ADVANCED_FACE ( 'NONE', ( #53 ), #78, .T. ) ;
#218 = DIRECTION ( 'NONE',  ( 0.000000000000000000, 0.000000000000000000, 1.000000000000000000 ) ) ;
#219 = CC_DESIGN_APPROVAL ( #178, ( #16 ) ) ;
#220 = DIRECTION ( 'NONE',  ( 0.000000000000000000, 0.000000000000000000, 1.000000000000000000 ) ) ;
#221 = ORIENTED_EDGE ( 'NONE', *, *, #20, .T. ) ;
#222 = ORIENTED_EDGE ( 'NONE', *, *, #191, .F. ) ;
#223 = AXIS2_PLACEMENT_3D ( 'NONE', #22, #2, #25 ) ;
#224 = DIRECTION ( 'NONE',  ( 1.000000000000000000, 0.000000000000000000, 0.000000000000000000 ) ) ;
#225 = CARTESIAN_POINT ( 'NONE',  ( -9.000000000000000000, 0.000000000000000000, 0.000000000000000000 ) ) ;
#226 = CARTESIAN_POINT ( 'NONE',  ( 5.750000000000000000, 7.041719095097280880E-16, 7.000000000000000000 ) ) ;
#227 = CARTESIAN_POINT ( 'NONE',  ( 9.000000000000000000, 1.102182119232617714E-15, 7.000000000000000000 ) ) ;
#228 = EDGE_LOOP ( 'NONE', ( #88, #238, #154, #101 ) ) ;
#229 = PERSON_AND_ORGANIZATION ( #61, #63 ) ;
#230 = CARTESIAN_POINT ( 'NONE',  ( 0.000000000000000000, 0.000000000000000000, 7.000000000000000000 ) ) ;
#231 = APPROVAL_STATUS ( 'not_yet_approved' ) ;
#232 = CIRCLE ( 'NONE', #162, 9.000000000000000000 ) ;
#233 = COORDINATED_UNIVERSAL_TIME_OFFSET ( 1, 0, .AHEAD. ) ;
#234 =( LENGTH_UNIT ( ) NAMED_UNIT ( * ) SI_UNIT ( .MILLI., .METRE. ) );
#235 = DIRECTION ( 'NONE',  ( -0.000000000000000000, -0.000000000000000000, -1.000000000000000000 ) ) ;
#236 = EDGE_CURVE ( 'NONE', #182, #103, #29, .T. ) ;
#237 = DIRECTION ( 'NONE',  ( 0.000000000000000000, 0.000000000000000000, 1.000000000000000000 ) ) ;
#238 = ORIENTED_EDGE ( 'NONE', *, *, #56, .T. ) ;
#239 = VECTOR ( 'NONE', #163, 1000.000000000000000 ) ;
#240 = ORIENTED_EDGE ( 'NONE', *, *, #116, .F. ) ;
#241 = CC_DESIGN_PERSON_AND_ORGANIZATION_ASSIGNMENT ( #13, #170, ( #16 ) ) ;
#242 = EDGE_CURVE ( 'NONE', #157, #128, #203, .T. ) ;
#243 = LINE ( 'NONE', #188, #17 ) ;
#244 = ORIENTED_EDGE ( 'NONE', *, *, #191, .T. ) ;
#245 = LINE ( 'NONE', #70, #239 ) ;
#246 = ORIENTED_EDGE ( 'NONE', *, *, #242, .T. ) ;
#247 = AXIS2_PLACEMENT_3D ( 'NONE', #121, #146, #65 ) ;
#248 = DIRECTION ( 'NONE',  ( 1.000000000000000000, 0.000000000000000000, 0.000000000000000000 ) ) ;
#249 = PERSON_AND_ORGANIZATION_ROLE ( 'design_supplier' ) ;
#250 = DIRECTION ( 'NONE',  ( 0.000000000000000000, 0.000000000000000000, 1.000000000000000000 ) ) ;
#251 = CC_DESIGN_DATE_AND_TIME_ASSIGNMENT ( #209, #164, ( #16 ) ) ;
#252 = APPROVAL_ROLE ( '' ) ;
#253 = APPROVAL_STATUS ( 'not_yet_approved' ) ;
#254 = AXIS2_PLACEMENT_3D ( 'NONE', #134, #220, #201 ) ;
#255 = CYLINDRICAL_SURFACE ( 'NONE', #73, 9.000000000000000000 ) ;
ENDSEC;
END-ISO-10303-21;
