ISO-10303-21;
HEADER;
FILE_DESCRIPTION (( 'STEP AP203' ),
    '1' );
FILE_NAME ('7dfb.STEP',
    '2023-02-13T11:35:51',
    ( '' ),
    ( '' ),
    'SwSTEP 2.0',
    'SolidWorks 2019',
    '' );
FILE_SCHEMA (( 'CONFIG_CONTROL_DESIGN' ));
ENDSEC;

DATA;
#1 = APPROVAL_ROLE ( '' ) ;
#2 = DIRECTION ( 'NONE',  ( 0.000000000000000000, 0.000000000000000000, 1.000000000000000000 ) ) ;
#3 = CC_DESIGN_DATE_AND_TIME_ASSIGNMENT ( #194, #22, ( #185 ) ) ;
#4 = DIRECTION ( 'NONE',  ( 0.000000000000000000, 0.000000000000000000, 1.000000000000000000 ) ) ;
#5 = DIRECTION ( 'NONE',  ( -0.000000000000000000, -0.000000000000000000, -1.000000000000000000 ) ) ;
#6 = CIRCLE ( 'NONE', #178, 6.500000000000000888 ) ;
#7 = CARTESIAN_POINT ( 'NONE',  ( 0.000000000000000000, 0.000000000000000000, 250.0000000000000000 ) ) ;
#8 = ORIENTED_EDGE ( 'NONE', *, *, #124, .F. ) ;
#9 = DIRECTION ( 'NONE',  ( -0.000000000000000000, -0.000000000000000000, -1.000000000000000000 ) ) ;
#10 = PERSON_AND_ORGANIZATION_ROLE ( 'design_owner' ) ;
#11 = CYLINDRICAL_SURFACE ( 'NONE', #156, 11.00000000000000000 ) ;
#12 = PRODUCT_DEFINITION ( 'NEZNÁMÝ', '', #240, #231 ) ;
#13 = VERTEX_POINT ( 'NONE', #253 ) ;
#14 = ORIENTED_EDGE ( 'NONE', *, *, #180, .T. ) ;
#15 = ORIENTED_EDGE ( 'NONE', *, *, #237, .T. ) ;
#16 = ORIENTED_EDGE ( 'NONE', *, *, #157, .F. ) ;
#17 = PERSON_AND_ORGANIZATION_ROLE ( 'creator' ) ;
#18 = PERSON_AND_ORGANIZATION_ROLE ( 'creator' ) ;
#19 = EDGE_LOOP ( 'NONE', ( #205, #102, #15, #165 ) ) ;
#20 = CC_DESIGN_PERSON_AND_ORGANIZATION_ASSIGNMENT ( #188, #167, ( #185 ) ) ;
#21 = APPROVAL_DATE_TIME ( #44, #232 ) ;
#22 = DATE_TIME_ROLE ( 'classification_date' ) ;
#23 = CARTESIAN_POINT ( 'NONE',  ( -6.500000000000000888, 0.000000000000000000, 7.000000000000000000 ) ) ;
#24 = CARTESIAN_POINT ( 'NONE',  ( 0.000000000000000000, 0.000000000000000000, 7.000000000000000000 ) ) ;
#25 = ORIENTED_EDGE ( 'NONE', *, *, #180, .F. ) ;
#26 = LINE ( 'NONE', #106, #115 ) ;
#27 = CC_DESIGN_APPROVAL ( #218, ( #12 ) ) ;
#28 = APPROVAL_STATUS ( 'not_yet_approved' ) ;
#29 = CYLINDRICAL_SURFACE ( 'NONE', #108, 6.500000000000000888 ) ;
#30 = CC_DESIGN_APPROVAL ( #232, ( #185 ) ) ;
#31 = EDGE_CURVE ( 'NONE', #119, #117, #234, .T. ) ;
#32 = EDGE_LOOP ( 'NONE', ( #153, #45, #243, #16 ) ) ;
#33 = ORIENTED_EDGE ( 'NONE', *, *, #92, .T. ) ;
#34 = PERSON ( 'NEURÈENÝ', 'NEURÈENÝ', 'NEURÈENÝ', ('NEURÈENÝ'), ('NEURÈENÝ'), ('NEURÈENÝ') ) ;
#35 = EDGE_LOOP ( 'NONE', ( #127, #242 ) ) ;
#36 = AXIS2_PLACEMENT_3D ( 'NONE', #225, #186, #129 ) ;
#37 = AXIS2_PLACEMENT_3D ( 'NONE', #131, #193, #230 ) ;
#38 = ORIENTED_EDGE ( 'NONE', *, *, #212, .T. ) ;
#39 = AXIS2_PLACEMENT_3D ( 'NONE', #217, #4, #49 ) ;
#40 = APPROVAL_PERSON_ORGANIZATION ( #84, #232, #1 ) ;
#41 =( GEOMETRIC_REPRESENTATION_CONTEXT ( 3 ) GLOBAL_UNCERTAINTY_ASSIGNED_CONTEXT ( ( #184 ) ) GLOBAL_UNIT_ASSIGNED_CONTEXT ( ( #120, #104, #255 ) ) REPRESENTATION_CONTEXT ( 'NONE', 'WORKASPACE' ) );
#42 = ADVANCED_FACE ( 'NONE', ( #89 ), #99, .T. ) ;
#43 = VERTEX_POINT ( 'NONE', #23 ) ;
#44 = DATE_AND_TIME ( #214, #175 ) ;
#45 = ORIENTED_EDGE ( 'NONE', *, *, #124, .T. ) ;
#46 = DATE_AND_TIME ( #221, #128 ) ;
#47 = FACE_OUTER_BOUND ( 'NONE', #74, .T. ) ;
#48 = FACE_OUTER_BOUND ( 'NONE', #19, .T. ) ;
#49 = DIRECTION ( 'NONE',  ( 1.000000000000000000, 0.000000000000000000, 0.000000000000000000 ) ) ;
#50 = CARTESIAN_POINT ( 'NONE',  ( 6.500000000000000888, 7.960204194457796463E-16, 250.0000000000000000 ) ) ;
#51 = APPROVAL_ROLE ( '' ) ;
#52 = CC_DESIGN_PERSON_AND_ORGANIZATION_ASSIGNMENT ( #228, #118, ( #240 ) ) ;
#53 = DIRECTION ( 'NONE',  ( 0.000000000000000000, 0.000000000000000000, 1.000000000000000000 ) ) ;
#54 = DIRECTION ( 'NONE',  ( -1.000000000000000000, 0.000000000000000000, 0.000000000000000000 ) ) ;
#55 = CARTESIAN_POINT ( 'NONE',  ( -11.00000000000000000, 0.000000000000000000, 7.000000000000000000 ) ) ;
#56 = AXIS2_PLACEMENT_3D ( 'NONE', #136, #235, #137 ) ;
#57 = CALENDAR_DATE ( 2023, 13, 2 ) ;
#58 = CC_DESIGN_PERSON_AND_ORGANIZATION_ASSIGNMENT ( #209, #10, ( #96 ) ) ;
#59 = DATE_AND_TIME ( #57, #192 ) ;
#60 = DIRECTION ( 'NONE',  ( 0.000000000000000000, 0.000000000000000000, 1.000000000000000000 ) ) ;
#61 = ADVANCED_FACE ( 'NONE', ( #47 ), #248, .T. ) ;
#62 = DIRECTION ( 'NONE',  ( 0.000000000000000000, 0.000000000000000000, 1.000000000000000000 ) ) ;
#63 = CALENDAR_DATE ( 2023, 13, 2 ) ;
#64 = LOCAL_TIME ( 12, 35, 51.00000000000000000, #168 ) ;
#65 = PRODUCT_RELATED_PRODUCT_CATEGORY ( 'detail', '', ( #96 ) ) ;
#66 = DIRECTION ( 'NONE',  ( 0.000000000000000000, 0.000000000000000000, 1.000000000000000000 ) ) ;
#67 = FACE_BOUND ( 'NONE', #35, .T. ) ;
#68 = DIRECTION ( 'NONE',  ( -0.000000000000000000, -0.000000000000000000, -1.000000000000000000 ) ) ;
#69 = FACE_OUTER_BOUND ( 'NONE', #251, .T. ) ;
#70 = CC_DESIGN_PERSON_AND_ORGANIZATION_ASSIGNMENT ( #101, #17, ( #240 ) ) ;
#71 = DIRECTION ( 'NONE',  ( 1.000000000000000000, 0.000000000000000000, 0.000000000000000000 ) ) ;
#72 = CARTESIAN_POINT ( 'NONE',  ( -11.00000000000000000, 0.000000000000000000, 7.000000000000000000 ) ) ;
#73 = APPLICATION_CONTEXT ( 'configuration controlled 3d designs of mechanical parts and assemblies' ) ;
#74 = EDGE_LOOP ( 'NONE', ( #8, #159, #97, #33 ) ) ;
#75 = MANIFOLD_SOLID_BREP ( 'Pøidat vysunutím3', #142 ) ;
#76 = AXIS2_PLACEMENT_3D ( 'NONE', #111, #53, #160 ) ;
#77 = DIRECTION ( 'NONE',  ( 0.000000000000000000, 0.000000000000000000, 1.000000000000000000 ) ) ;
#78 = ORIENTED_EDGE ( 'NONE', *, *, #144, .T. ) ;
#79 = LINE ( 'NONE', #55, #123 ) ;
#80 = PRODUCT_DEFINITION_SHAPE ( 'NONE', 'NONE',  #12 ) ;
#81 = APPROVAL_ROLE ( '' ) ;
#82 = CALENDAR_DATE ( 2023, 13, 2 ) ;
#83 = ADVANCED_FACE ( 'NONE', ( #67, #195 ), #105, .T. ) ;
#84 = PERSON_AND_ORGANIZATION ( #34, #226 ) ;
#85 = COORDINATED_UNIVERSAL_TIME_OFFSET ( 1, 0, .AHEAD. ) ;
#86 = CARTESIAN_POINT ( 'NONE',  ( 0.000000000000000000, 0.000000000000000000, 0.000000000000000000 ) ) ;
#87 = CARTESIAN_POINT ( 'NONE',  ( 0.000000000000000000, 0.000000000000000000, 250.0000000000000000 ) ) ;
#88 = APPLICATION_CONTEXT ( 'configuration controlled 3d designs of mechanical parts and assemblies' ) ;
#89 = FACE_OUTER_BOUND ( 'NONE', #190, .T. ) ;
#90 = ADVANCED_BREP_SHAPE_REPRESENTATION ( '7dfb', ( #75, #204 ), #41 ) ;
#91 = AXIS2_PLACEMENT_3D ( 'NONE', #7, #68, #197 ) ;
#92 = EDGE_CURVE ( 'NONE', #114, #13, #219, .T. ) ;
#93 = CARTESIAN_POINT ( 'NONE',  ( 11.00000000000000000, 1.347111479062088405E-15, 7.000000000000000000 ) ) ;
#94 = DIRECTION ( 'NONE',  ( -0.000000000000000000, -0.000000000000000000, -1.000000000000000000 ) ) ;
#95 = APPLICATION_PROTOCOL_DEFINITION ( 'international standard', 'config_control_design', 1994, #88 ) ;
#96 = PRODUCT ( '7dfb', '7dfb', '', ( #241 ) ) ;
#97 = ORIENTED_EDGE ( 'NONE', *, *, #157, .T. ) ;
#98 = CC_DESIGN_PERSON_AND_ORGANIZATION_ASSIGNMENT ( #135, #18, ( #12 ) ) ;
#99 = PLANE ( 'NONE',  #112 ) ;
#100 = VERTEX_POINT ( 'NONE', #199 ) ;
#101 = PERSON_AND_ORGANIZATION ( #34, #226 ) ;
#102 = ORIENTED_EDGE ( 'NONE', *, *, #144, .F. ) ;
#103 = APPROVAL_STATUS ( 'not_yet_approved' ) ;
#104 =( NAMED_UNIT ( * ) PLANE_ANGLE_UNIT ( ) SI_UNIT ( $, .RADIAN. ) );
#105 = PLANE ( 'NONE',  #249 ) ;
#106 = CARTESIAN_POINT ( 'NONE',  ( 6.500000000000000888, 7.960204194457796463E-16, 250.0000000000000000 ) ) ;
#107 = EDGE_CURVE ( 'NONE', #183, #100, #26, .T. ) ;
#108 = AXIS2_PLACEMENT_3D ( 'NONE', #179, #9, #246 ) ;
#109 = CARTESIAN_POINT ( 'NONE',  ( 11.00000000000000000, 1.347111479062088405E-15, 7.000000000000000000 ) ) ;
#110 = COORDINATED_UNIVERSAL_TIME_OFFSET ( 1, 0, .AHEAD. ) ;
#111 = CARTESIAN_POINT ( 'NONE',  ( 0.000000000000000000, 0.000000000000000000, 7.000000000000000000 ) ) ;
#112 = AXIS2_PLACEMENT_3D ( 'NONE', #87, #254, #213 ) ;
#113 = APPROVAL ( #28, 'NEURÈENÝ' ) ;
#114 = VERTEX_POINT ( 'NONE', #239 ) ;
#115 = VECTOR ( 'NONE', #173, 1000.000000000000000 ) ;
#116 = SHAPE_DEFINITION_REPRESENTATION ( #80, #90 ) ;
#117 = VERTEX_POINT ( 'NONE', #72 ) ;
#118 = PERSON_AND_ORGANIZATION_ROLE ( 'design_supplier' ) ;
#119 = VERTEX_POINT ( 'NONE', #109 ) ;
#120 =( LENGTH_UNIT ( ) NAMED_UNIT ( * ) SI_UNIT ( .MILLI., .METRE. ) );
#121 = CYLINDRICAL_SURFACE ( 'NONE', #91, 6.500000000000000888 ) ;
#122 = CARTESIAN_POINT ( 'NONE',  ( 0.000000000000000000, 0.000000000000000000, 7.000000000000000000 ) ) ;
#123 = VECTOR ( 'NONE', #94, 1000.000000000000000 ) ;
#124 = EDGE_CURVE ( 'NONE', #119, #13, #177, .T. ) ;
#125 = ADVANCED_FACE ( 'NONE', ( #69 ), #245, .F. ) ;
#126 = FACE_OUTER_BOUND ( 'NONE', #32, .T. ) ;
#127 = ORIENTED_EDGE ( 'NONE', *, *, #139, .F. ) ;
#128 = LOCAL_TIME ( 12, 35, 51.00000000000000000, #110 ) ;
#129 = DIRECTION ( 'NONE',  ( 1.000000000000000000, 0.000000000000000000, -0.000000000000000000 ) ) ;
#130 = DIRECTION ( 'NONE',  ( 0.000000000000000000, 0.000000000000000000, 1.000000000000000000 ) ) ;
#131 = CARTESIAN_POINT ( 'NONE',  ( 0.000000000000000000, 0.000000000000000000, 7.000000000000000000 ) ) ;
#132 = APPROVAL_DATE_TIME ( #46, #113 ) ;
#133 = DIRECTION ( 'NONE',  ( 1.000000000000000000, 0.000000000000000000, 0.000000000000000000 ) ) ;
#134 = PERSON_AND_ORGANIZATION ( #34, #226 ) ;
#135 = PERSON_AND_ORGANIZATION ( #34, #226 ) ;
#136 = CARTESIAN_POINT ( 'NONE',  ( 0.000000000000000000, 0.000000000000000000, 7.000000000000000000 ) ) ;
#137 = DIRECTION ( 'NONE',  ( -1.000000000000000000, 0.000000000000000000, 0.000000000000000000 ) ) ;
#138 = CARTESIAN_POINT ( 'NONE',  ( -6.500000000000000888, 0.000000000000000000, 250.0000000000000000 ) ) ;
#139 = EDGE_CURVE ( 'NONE', #43, #100, #238, .T. ) ;
#140 = AXIS2_PLACEMENT_3D ( 'NONE', #86, #60, #202 ) ;
#141 = DIRECTION ( 'NONE',  ( 1.000000000000000000, 0.000000000000000000, 0.000000000000000000 ) ) ;
#142 = CLOSED_SHELL ( 'NONE', ( #150, #166, #61, #83, #125, #200, #42 ) ) ;
#143 = EDGE_LOOP ( 'NONE', ( #38, #233 ) ) ;
#144 = EDGE_CURVE ( 'NONE', #215, #183, #211, .T. ) ;
#145 = CIRCLE ( 'NONE', #39, 11.00000000000000000 ) ;
#146 = CARTESIAN_POINT ( 'NONE',  ( 0.000000000000000000, 0.000000000000000000, 7.000000000000000000 ) ) ;
#147 = AXIS2_PLACEMENT_3D ( 'NONE', #236, #130, #71 ) ;
#148 = ORIENTED_EDGE ( 'NONE', *, *, #92, .F. ) ;
#149 = COORDINATED_UNIVERSAL_TIME_OFFSET ( 1, 0, .AHEAD. ) ;
#150 = ADVANCED_FACE ( 'NONE', ( #224 ), #29, .T. ) ;
#151 = DATE_AND_TIME ( #63, #64 ) ;
#152 = APPROVAL_PERSON_ORGANIZATION ( #158, #218, #81 ) ;
#153 = ORIENTED_EDGE ( 'NONE', *, *, #31, .F. ) ;
#154 = DIRECTION ( 'NONE',  ( 1.000000000000000000, 0.000000000000000000, 0.000000000000000000 ) ) ;
#155 = LINE ( 'NONE', #220, #174 ) ;
#156 = AXIS2_PLACEMENT_3D ( 'NONE', #146, #223, #54 ) ;
#157 = EDGE_CURVE ( 'NONE', #117, #114, #79, .T. ) ;
#158 = PERSON_AND_ORGANIZATION ( #34, #226 ) ;
#159 = ORIENTED_EDGE ( 'NONE', *, *, #212, .F. ) ;
#160 = DIRECTION ( 'NONE',  ( 1.000000000000000000, 0.000000000000000000, 0.000000000000000000 ) ) ;
#161 = ORIENTED_EDGE ( 'NONE', *, *, #107, .T. ) ;
#162 = CIRCLE ( 'NONE', #222, 11.00000000000000000 ) ;
#163 = SECURITY_CLASSIFICATION_LEVEL ( 'unclassified' ) ;
#164 = DIRECTION ( 'NONE',  ( 0.000000000000000000, 0.000000000000000000, 1.000000000000000000 ) ) ;
#165 = ORIENTED_EDGE ( 'NONE', *, *, #139, .T. ) ;
#166 = ADVANCED_FACE ( 'NONE', ( #126 ), #11, .T. ) ;
#167 = PERSON_AND_ORGANIZATION_ROLE ( 'classification_officer' ) ;
#168 = COORDINATED_UNIVERSAL_TIME_OFFSET ( 1, 0, .AHEAD. ) ;
#169 = ORIENTED_EDGE ( 'NONE', *, *, #237, .F. ) ;
#170 = APPROVAL_STATUS ( 'not_yet_approved' ) ;
#171 = AXIS2_PLACEMENT_3D ( 'NONE', #207, #77, #181 ) ;
#172 = VECTOR ( 'NONE', #5, 1000.000000000000000 ) ;
#173 = DIRECTION ( 'NONE',  ( -0.000000000000000000, -0.000000000000000000, -1.000000000000000000 ) ) ;
#174 = VECTOR ( 'NONE', #182, 1000.000000000000000 ) ;
#175 = LOCAL_TIME ( 12, 35, 51.00000000000000000, #149 ) ;
#176 = CC_DESIGN_APPROVAL ( #113, ( #240 ) ) ;
#177 = LINE ( 'NONE', #93, #172 ) ;
#178 = AXIS2_PLACEMENT_3D ( 'NONE', #203, #66, #141 ) ;
#179 = CARTESIAN_POINT ( 'NONE',  ( 0.000000000000000000, 0.000000000000000000, 250.0000000000000000 ) ) ;
#180 = EDGE_CURVE ( 'NONE', #183, #215, #196, .T. ) ;
#181 = DIRECTION ( 'NONE',  ( 1.000000000000000000, 0.000000000000000000, 0.000000000000000000 ) ) ;
#182 = DIRECTION ( 'NONE',  ( -0.000000000000000000, -0.000000000000000000, -1.000000000000000000 ) ) ;
#183 = VERTEX_POINT ( 'NONE', #50 ) ;
#184 = UNCERTAINTY_MEASURE_WITH_UNIT (LENGTH_MEASURE( 1.000000000000000082E-05 ), #120, 'distance_accuracy_value', 'NONE');
#185 = SECURITY_CLASSIFICATION ( '', '', #163 ) ;
#186 = DIRECTION ( 'NONE',  ( 0.000000000000000000, 0.000000000000000000, 1.000000000000000000 ) ) ;
#187 = APPROVAL_DATE_TIME ( #59, #218 ) ;
#188 = PERSON_AND_ORGANIZATION ( #34, #226 ) ;
#189 = APPLICATION_PROTOCOL_DEFINITION ( 'international standard', 'config_control_design', 1994, #73 ) ;
#190 = EDGE_LOOP ( 'NONE', ( #78, #14 ) ) ;
#191 = EDGE_CURVE ( 'NONE', #100, #43, #6, .T. ) ;
#192 = LOCAL_TIME ( 12, 35, 51.00000000000000000, #85 ) ;
#193 = DIRECTION ( 'NONE',  ( 0.000000000000000000, 0.000000000000000000, 1.000000000000000000 ) ) ;
#194 = DATE_AND_TIME ( #82, #247 ) ;
#195 = FACE_OUTER_BOUND ( 'NONE', #143, .T. ) ;
#196 = CIRCLE ( 'NONE', #147, 6.500000000000000888 ) ;
#197 = DIRECTION ( 'NONE',  ( -1.000000000000000000, 0.000000000000000000, 0.000000000000000000 ) ) ;
#198 = DIRECTION ( 'NONE',  ( 1.000000000000000000, 0.000000000000000000, -0.000000000000000000 ) ) ;
#199 = CARTESIAN_POINT ( 'NONE',  ( 6.500000000000000888, 7.960204194457796463E-16, 7.000000000000000000 ) ) ;
#200 = ADVANCED_FACE ( 'NONE', ( #48 ), #121, .T. ) ;
#201 = CC_DESIGN_SECURITY_CLASSIFICATION ( #185, ( #240 ) ) ;
#202 = DIRECTION ( 'NONE',  ( 1.000000000000000000, 0.000000000000000000, 0.000000000000000000 ) ) ;
#203 = CARTESIAN_POINT ( 'NONE',  ( 0.000000000000000000, 0.000000000000000000, 7.000000000000000000 ) ) ;
#204 = AXIS2_PLACEMENT_3D ( 'NONE', #250, #62, #133 ) ;
#205 = ORIENTED_EDGE ( 'NONE', *, *, #107, .F. ) ;
#206 = ORIENTED_EDGE ( 'NONE', *, *, #229, .F. ) ;
#207 = CARTESIAN_POINT ( 'NONE',  ( 0.000000000000000000, 0.000000000000000000, 250.0000000000000000 ) ) ;
#208 = APPROVAL_PERSON_ORGANIZATION ( #134, #113, #51 ) ;
#209 = PERSON_AND_ORGANIZATION ( #34, #226 ) ;
#210 = EDGE_LOOP ( 'NONE', ( #25, #161, #227, #169 ) ) ;
#211 = CIRCLE ( 'NONE', #171, 6.500000000000000888 ) ;
#212 = EDGE_CURVE ( 'NONE', #117, #119, #162, .T. ) ;
#213 = DIRECTION ( 'NONE',  ( 1.000000000000000000, 0.000000000000000000, -0.000000000000000000 ) ) ;
#214 = CALENDAR_DATE ( 2023, 13, 2 ) ;
#215 = VERTEX_POINT ( 'NONE', #138 ) ;
#216 = DATE_TIME_ROLE ( 'creation_date' ) ;
#217 = CARTESIAN_POINT ( 'NONE',  ( 0.000000000000000000, 0.000000000000000000, 0.000000000000000000 ) ) ;
#218 = APPROVAL ( #170, 'NEURÈENÝ' ) ;
#219 = CIRCLE ( 'NONE', #140, 11.00000000000000000 ) ;
#220 = CARTESIAN_POINT ( 'NONE',  ( -6.500000000000000888, 0.000000000000000000, 250.0000000000000000 ) ) ;
#221 = CALENDAR_DATE ( 2023, 13, 2 ) ;
#222 = AXIS2_PLACEMENT_3D ( 'NONE', #24, #2, #154 ) ;
#223 = DIRECTION ( 'NONE',  ( -0.000000000000000000, -0.000000000000000000, -1.000000000000000000 ) ) ;
#224 = FACE_OUTER_BOUND ( 'NONE', #210, .T. ) ;
#225 = CARTESIAN_POINT ( 'NONE',  ( 0.000000000000000000, 0.000000000000000000, 0.000000000000000000 ) ) ;
#226 = ORGANIZATION ( 'NEURÈENÝ', 'NEURÈENÝ', '' ) ;
#227 = ORIENTED_EDGE ( 'NONE', *, *, #191, .T. ) ;
#228 = PERSON_AND_ORGANIZATION ( #34, #226 ) ;
#229 = EDGE_CURVE ( 'NONE', #13, #114, #145, .T. ) ;
#230 = DIRECTION ( 'NONE',  ( 1.000000000000000000, 0.000000000000000000, 0.000000000000000000 ) ) ;
#231 = DESIGN_CONTEXT ( 'detailed design', #88, 'design' ) ;
#232 = APPROVAL ( #103, 'NEURÈENÝ' ) ;
#233 = ORIENTED_EDGE ( 'NONE', *, *, #31, .T. ) ;
#234 = CIRCLE ( 'NONE', #37, 11.00000000000000000 ) ;
#235 = DIRECTION ( 'NONE',  ( -0.000000000000000000, -0.000000000000000000, -1.000000000000000000 ) ) ;
#236 = CARTESIAN_POINT ( 'NONE',  ( 0.000000000000000000, 0.000000000000000000, 250.0000000000000000 ) ) ;
#237 = EDGE_CURVE ( 'NONE', #215, #43, #155, .T. ) ;
#238 = CIRCLE ( 'NONE', #76, 6.500000000000000888 ) ;
#239 = CARTESIAN_POINT ( 'NONE',  ( -11.00000000000000000, 0.000000000000000000, 0.000000000000000000 ) ) ;
#240 = PRODUCT_DEFINITION_FORMATION_WITH_SPECIFIED_SOURCE ( 'LIBOVOLNÝ', '', #96, .NOT_KNOWN. ) ;
#241 = MECHANICAL_CONTEXT ( 'NONE', #73, 'mechanical' ) ;
#242 = ORIENTED_EDGE ( 'NONE', *, *, #191, .F. ) ;
#243 = ORIENTED_EDGE ( 'NONE', *, *, #229, .T. ) ;
#244 = CC_DESIGN_DATE_AND_TIME_ASSIGNMENT ( #151, #216, ( #12 ) ) ;
#245 = PLANE ( 'NONE',  #36 ) ;
#246 = DIRECTION ( 'NONE',  ( -1.000000000000000000, 0.000000000000000000, 0.000000000000000000 ) ) ;
#247 = LOCAL_TIME ( 12, 35, 51.00000000000000000, #252 ) ;
#248 = CYLINDRICAL_SURFACE ( 'NONE', #56, 11.00000000000000000 ) ;
#249 = AXIS2_PLACEMENT_3D ( 'NONE', #122, #164, #198 ) ;
#250 = CARTESIAN_POINT ( 'NONE',  ( 0.000000000000000000, 0.000000000000000000, 0.000000000000000000 ) ) ;
#251 = EDGE_LOOP ( 'NONE', ( #148, #206 ) ) ;
#252 = COORDINATED_UNIVERSAL_TIME_OFFSET ( 1, 0, .AHEAD. ) ;
#253 = CARTESIAN_POINT ( 'NONE',  ( 11.00000000000000000, 1.347111479062088405E-15, 0.000000000000000000 ) ) ;
#254 = DIRECTION ( 'NONE',  ( 0.000000000000000000, 0.000000000000000000, 1.000000000000000000 ) ) ;
#255 =( NAMED_UNIT ( * ) SI_UNIT ( $, .STERADIAN. ) SOLID_ANGLE_UNIT ( ) );
ENDSEC;
END-ISO-10303-21;
