ISO-10303-21;
HEADER;
FILE_DESCRIPTION (( 'STEP AP203' ),
    '1' );
FILE_NAME ('559c.STEP',
    '2022-07-07T17:36:42',
    ( '' ),
    ( '' ),
    'SwSTEP 2.0',
    'SolidWorks 2019',
    '' );
FILE_SCHEMA (( 'CONFIG_CONTROL_DESIGN' ));
ENDSEC;

DATA;
#1 = CIRCLE ( 'NONE', #68, 3.500000000000000000 ) ;
#2 = DIRECTION ( 'NONE',  ( 1.000000000000000000, 0.000000000000000000, 0.000000000000000000 ) ) ;
#3 = CARTESIAN_POINT ( 'NONE',  ( 3.500000000000000000, 4.286263797015736595E-16, 5.000000000000000000 ) ) ;
#4 = CC_DESIGN_APPROVAL ( #83, ( #223 ) ) ;
#5 = APPLICATION_PROTOCOL_DEFINITION ( 'international standard', 'config_control_design', 1994, #198 ) ;
#6 = EDGE_CURVE ( 'NONE', #189, #177, #106, .T. ) ;
#7 = DESIGN_CONTEXT ( 'detailed design', #198, 'design' ) ;
#8 = ORIENTED_EDGE ( 'NONE', *, *, #20, .T. ) ;
#9 = SECURITY_CLASSIFICATION_LEVEL ( 'unclassified' ) ;
#10 = EDGE_LOOP ( 'NONE', ( #116, #32 ) ) ;
#11 = DATE_AND_TIME ( #150, #64 ) ;
#12 = LINE ( 'NONE', #236, #53 ) ;
#13 = APPROVAL_PERSON_ORGANIZATION ( #126, #176, #208 ) ;
#14 = CYLINDRICAL_SURFACE ( 'NONE', #94, 6.000000000000000888 ) ;
#15 = CARTESIAN_POINT ( 'NONE',  ( 0.000000000000000000, 0.000000000000000000, 5.000000000000000000 ) ) ;
#16 = DATE_AND_TIME ( #199, #157 ) ;
#17 = EDGE_LOOP ( 'NONE', ( #227, #246 ) ) ;
#18 =( GEOMETRIC_REPRESENTATION_CONTEXT ( 3 ) GLOBAL_UNCERTAINTY_ASSIGNED_CONTEXT ( ( #206 ) ) GLOBAL_UNIT_ASSIGNED_CONTEXT ( ( #55, #231, #186 ) ) REPRESENTATION_CONTEXT ( 'NONE', 'WORKASPACE' ) );
#19 = CC_DESIGN_PERSON_AND_ORGANIZATION_ASSIGNMENT ( #92, #226, ( #75 ) ) ;
#20 = EDGE_CURVE ( 'NONE', #164, #187, #139, .T. ) ;
#21 = AXIS2_PLACEMENT_3D ( 'NONE', #242, #204, #69 ) ;
#22 = EDGE_CURVE ( 'NONE', #107, #135, #132, .T. ) ;
#23 = CC_DESIGN_APPROVAL ( #125, ( #75 ) ) ;
#24 = DIRECTION ( 'NONE',  ( 0.000000000000000000, 0.000000000000000000, 1.000000000000000000 ) ) ;
#25 = PERSON_AND_ORGANIZATION ( #222, #119 ) ;
#26 = APPLICATION_CONTEXT ( 'configuration controlled 3d designs of mechanical parts and assemblies' ) ;
#27 = DIRECTION ( 'NONE',  ( 0.000000000000000000, 0.000000000000000000, 1.000000000000000000 ) ) ;
#28 = PERSON_AND_ORGANIZATION ( #222, #119 ) ;
#29 = VERTEX_POINT ( 'NONE', #3 ) ;
#30 = CIRCLE ( 'NONE', #200, 3.500000000000000000 ) ;
#31 = CALENDAR_DATE ( 2022, 7, 7 ) ;
#32 = ORIENTED_EDGE ( 'NONE', *, *, #211, .F. ) ;
#33 = CARTESIAN_POINT ( 'NONE',  ( -3.500000000000000000, 0.000000000000000000, 5.000000000000000000 ) ) ;
#34 = PLANE ( 'NONE',  #41 ) ;
#35 = EDGE_CURVE ( 'NONE', #189, #164, #84, .T. ) ;
#36 = PLANE ( 'NONE',  #214 ) ;
#37 = ORIENTED_EDGE ( 'NONE', *, *, #90, .T. ) ;
#38 = APPROVAL_DATE_TIME ( #16, #125 ) ;
#39 = AXIS2_PLACEMENT_3D ( 'NONE', #70, #124, #185 ) ;
#40 = EDGE_CURVE ( 'NONE', #177, #189, #43, .T. ) ;
#41 = AXIS2_PLACEMENT_3D ( 'NONE', #114, #239, #134 ) ;
#42 = ADVANCED_FACE ( 'NONE', ( #161, #202 ), #122, .T. ) ;
#43 = CIRCLE ( 'NONE', #59, 6.000000000000000888 ) ;
#44 = CARTESIAN_POINT ( 'NONE',  ( 0.000000000000000000, 0.000000000000000000, 5.000000000000000000 ) ) ;
#45 = DATE_TIME_ROLE ( 'creation_date' ) ;
#46 = ADVANCED_FACE ( 'NONE', ( #104 ), #163, .T. ) ;
#47 = DIRECTION ( 'NONE',  ( -0.000000000000000000, -0.000000000000000000, -1.000000000000000000 ) ) ;
#48 = APPROVAL_STATUS ( 'not_yet_approved' ) ;
#49 = ORIENTED_EDGE ( 'NONE', *, *, #65, .F. ) ;
#50 = CARTESIAN_POINT ( 'NONE',  ( 0.000000000000000000, 0.000000000000000000, 105.0000000000000142 ) ) ;
#51 = MECHANICAL_CONTEXT ( 'NONE', #26, 'mechanical' ) ;
#52 = ORIENTED_EDGE ( 'NONE', *, *, #82, .F. ) ;
#53 = VECTOR ( 'NONE', #76, 1000.000000000000000 ) ;
#54 = CLOSED_SHELL ( 'NONE', ( #46, #221, #118, #42, #201, #67, #179 ) ) ;
#55 =( LENGTH_UNIT ( ) NAMED_UNIT ( * ) SI_UNIT ( .MILLI., .METRE. ) );
#56 = EDGE_CURVE ( 'NONE', #135, #107, #30, .T. ) ;
#57 = CARTESIAN_POINT ( 'NONE',  ( 0.000000000000000000, 0.000000000000000000, 0.000000000000000000 ) ) ;
#58 = CYLINDRICAL_SURFACE ( 'NONE', #178, 6.000000000000000888 ) ;
#59 = AXIS2_PLACEMENT_3D ( 'NONE', #44, #87, #182 ) ;
#60 = DIRECTION ( 'NONE',  ( 1.000000000000000000, 0.000000000000000000, 0.000000000000000000 ) ) ;
#61 = CC_DESIGN_DATE_AND_TIME_ASSIGNMENT ( #11, #45, ( #223 ) ) ;
#62 = DIRECTION ( 'NONE',  ( 0.000000000000000000, 0.000000000000000000, 1.000000000000000000 ) ) ;
#63 = AXIS2_PLACEMENT_3D ( 'NONE', #50, #27, #102 ) ;
#64 = LOCAL_TIME ( 19, 36, 42.00000000000000000, #229 ) ;
#65 = EDGE_CURVE ( 'NONE', #177, #187, #111, .T. ) ;
#66 = DIRECTION ( 'NONE',  ( 0.000000000000000000, 0.000000000000000000, 1.000000000000000000 ) ) ;
#67 = ADVANCED_FACE ( 'NONE', ( #168 ), #77, .T. ) ;
#68 = AXIS2_PLACEMENT_3D ( 'NONE', #238, #62, #60 ) ;
#69 = DIRECTION ( 'NONE',  ( 1.000000000000000000, 0.000000000000000000, -0.000000000000000000 ) ) ;
#70 = CARTESIAN_POINT ( 'NONE',  ( 0.000000000000000000, 0.000000000000000000, 5.000000000000000000 ) ) ;
#71 = DIRECTION ( 'NONE',  ( -1.000000000000000000, 0.000000000000000000, 0.000000000000000000 ) ) ;
#72 = APPROVAL_DATE_TIME ( #146, #83 ) ;
#73 = ORIENTED_EDGE ( 'NONE', *, *, #211, .T. ) ;
#74 = CALENDAR_DATE ( 2022, 7, 7 ) ;
#75 = SECURITY_CLASSIFICATION ( '', '', #9 ) ;
#76 = DIRECTION ( 'NONE',  ( -0.000000000000000000, -0.000000000000000000, -1.000000000000000000 ) ) ;
#77 = CYLINDRICAL_SURFACE ( 'NONE', #249, 3.500000000000000000 ) ;
#78 = CARTESIAN_POINT ( 'NONE',  ( 0.000000000000000000, 0.000000000000000000, 5.000000000000000000 ) ) ;
#79 = CC_DESIGN_PERSON_AND_ORGANIZATION_ASSIGNMENT ( #210, #143, ( #223 ) ) ;
#80 = CARTESIAN_POINT ( 'NONE',  ( -6.000000000000000888, 0.000000000000000000, 0.000000000000000000 ) ) ;
#81 = ORIENTED_EDGE ( 'NONE', *, *, #82, .T. ) ;
#82 = EDGE_CURVE ( 'NONE', #135, #98, #251, .T. ) ;
#83 = APPROVAL ( #165, 'NEURÈENÝ' ) ;
#84 = LINE ( 'NONE', #121, #141 ) ;
#85 = DIRECTION ( 'NONE',  ( 1.000000000000000000, 0.000000000000000000, 0.000000000000000000 ) ) ;
#86 = AXIS2_PLACEMENT_3D ( 'NONE', #142, #245, #71 ) ;
#87 = DIRECTION ( 'NONE',  ( 0.000000000000000000, 0.000000000000000000, 1.000000000000000000 ) ) ;
#88 = COORDINATED_UNIVERSAL_TIME_OFFSET ( 1, 0, .AHEAD. ) ;
#89 = ORIENTED_EDGE ( 'NONE', *, *, #35, .T. ) ;
#90 = EDGE_CURVE ( 'NONE', #107, #29, #12, .T. ) ;
#91 = ORIENTED_EDGE ( 'NONE', *, *, #56, .F. ) ;
#92 = PERSON_AND_ORGANIZATION ( #222, #119 ) ;
#93 = CARTESIAN_POINT ( 'NONE',  ( 6.000000000000000888, 7.347880794884120722E-16, 5.000000000000000000 ) ) ;
#94 = AXIS2_PLACEMENT_3D ( 'NONE', #212, #131, #213 ) ;
#95 = CARTESIAN_POINT ( 'NONE',  ( 0.000000000000000000, 0.000000000000000000, 105.0000000000000142 ) ) ;
#96 = CARTESIAN_POINT ( 'NONE',  ( 0.000000000000000000, 0.000000000000000000, 105.0000000000000142 ) ) ;
#97 = DIRECTION ( 'NONE',  ( 1.000000000000000000, 0.000000000000000000, 0.000000000000000000 ) ) ;
#98 = VERTEX_POINT ( 'NONE', #33 ) ;
#99 = SHAPE_DEFINITION_REPRESENTATION ( #120, #173 ) ;
#100 = EDGE_LOOP ( 'NONE', ( #230, #128 ) ) ;
#101 = LOCAL_TIME ( 19, 36, 42.00000000000000000, #148 ) ;
#102 = DIRECTION ( 'NONE',  ( 1.000000000000000000, 0.000000000000000000, 0.000000000000000000 ) ) ;
#103 = DATE_AND_TIME ( #203, #101 ) ;
#104 = FACE_OUTER_BOUND ( 'NONE', #255, .T. ) ;
#105 = PERSON_AND_ORGANIZATION_ROLE ( 'design_owner' ) ;
#106 = CIRCLE ( 'NONE', #39, 6.000000000000000888 ) ;
#107 = VERTEX_POINT ( 'NONE', #252 ) ;
#108 = PERSON_AND_ORGANIZATION_ROLE ( 'creator' ) ;
#109 = ORIENTED_EDGE ( 'NONE', *, *, #35, .F. ) ;
#110 = DIRECTION ( 'NONE',  ( -1.000000000000000000, 0.000000000000000000, 0.000000000000000000 ) ) ;
#111 = LINE ( 'NONE', #152, #154 ) ;
#112 = CC_DESIGN_DATE_AND_TIME_ASSIGNMENT ( #103, #184, ( #75 ) ) ;
#113 = DIRECTION ( 'NONE',  ( 0.000000000000000000, 0.000000000000000000, 1.000000000000000000 ) ) ;
#114 = CARTESIAN_POINT ( 'NONE',  ( 0.000000000000000000, 0.000000000000000000, 0.000000000000000000 ) ) ;
#115 = ORIENTED_EDGE ( 'NONE', *, *, #6, .F. ) ;
#116 = ORIENTED_EDGE ( 'NONE', *, *, #20, .F. ) ;
#117 = PRODUCT_DEFINITION_FORMATION_WITH_SPECIFIED_SOURCE ( 'LIBOVOLNÝ', '', #181, .NOT_KNOWN. ) ;
#118 = ADVANCED_FACE ( 'NONE', ( #151 ), #58, .T. ) ;
#119 = ORGANIZATION ( 'NEURÈENÝ', 'NEURÈENÝ', '' ) ;
#120 = PRODUCT_DEFINITION_SHAPE ( 'NONE', 'NONE',  #223 ) ;
#121 = CARTESIAN_POINT ( 'NONE',  ( -6.000000000000000888, 0.000000000000000000, 5.000000000000000000 ) ) ;
#122 = PLANE ( 'NONE',  #21 ) ;
#123 = APPROVAL_ROLE ( '' ) ;
#124 = DIRECTION ( 'NONE',  ( 0.000000000000000000, 0.000000000000000000, 1.000000000000000000 ) ) ;
#125 = APPROVAL ( #48, 'NEURÈENÝ' ) ;
#126 = PERSON_AND_ORGANIZATION ( #222, #119 ) ;
#127 = AXIS2_PLACEMENT_3D ( 'NONE', #78, #133, #171 ) ;
#128 = ORIENTED_EDGE ( 'NONE', *, *, #40, .T. ) ;
#129 = APPLICATION_PROTOCOL_DEFINITION ( 'international standard', 'config_control_design', 1994, #26 ) ;
#130 = DIRECTION ( 'NONE',  ( -0.000000000000000000, -0.000000000000000000, -1.000000000000000000 ) ) ;
#131 = DIRECTION ( 'NONE',  ( -0.000000000000000000, -0.000000000000000000, -1.000000000000000000 ) ) ;
#132 = CIRCLE ( 'NONE', #63, 3.500000000000000000 ) ;
#133 = DIRECTION ( 'NONE',  ( 0.000000000000000000, 0.000000000000000000, 1.000000000000000000 ) ) ;
#134 = DIRECTION ( 'NONE',  ( 1.000000000000000000, 0.000000000000000000, -0.000000000000000000 ) ) ;
#135 = VERTEX_POINT ( 'NONE', #250 ) ;
#136 = APPROVAL_PERSON_ORGANIZATION ( #162, #125, #123 ) ;
#137 = EDGE_CURVE ( 'NONE', #29, #98, #1, .T. ) ;
#138 = MANIFOLD_SOLID_BREP ( 'Pøidat vysunutím3', #54 ) ;
#139 = CIRCLE ( 'NONE', #159, 6.000000000000000888 ) ;
#140 = EDGE_CURVE ( 'NONE', #98, #29, #180, .T. ) ;
#141 = VECTOR ( 'NONE', #47, 1000.000000000000000 ) ;
#142 = CARTESIAN_POINT ( 'NONE',  ( 0.000000000000000000, 0.000000000000000000, 105.0000000000000142 ) ) ;
#143 = PERSON_AND_ORGANIZATION_ROLE ( 'creator' ) ;
#144 = ORIENTED_EDGE ( 'NONE', *, *, #140, .F. ) ;
#145 = CARTESIAN_POINT ( 'NONE',  ( 0.000000000000000000, 0.000000000000000000, 105.0000000000000142 ) ) ;
#146 = DATE_AND_TIME ( #74, #241 ) ;
#147 = EDGE_LOOP ( 'NONE', ( #144, #209 ) ) ;
#148 = COORDINATED_UNIVERSAL_TIME_OFFSET ( 1, 0, .AHEAD. ) ;
#149 = LOCAL_TIME ( 19, 36, 42.00000000000000000, #243 ) ;
#150 = CALENDAR_DATE ( 2022, 7, 7 ) ;
#151 = FACE_OUTER_BOUND ( 'NONE', #207, .T. ) ;
#152 = CARTESIAN_POINT ( 'NONE',  ( 6.000000000000000888, 7.347880794884120722E-16, 5.000000000000000000 ) ) ;
#153 = DIRECTION ( 'NONE',  ( -0.000000000000000000, -0.000000000000000000, -1.000000000000000000 ) ) ;
#154 = VECTOR ( 'NONE', #191, 1000.000000000000000 ) ;
#155 = DIRECTION ( 'NONE',  ( -1.000000000000000000, 0.000000000000000000, 0.000000000000000000 ) ) ;
#156 = PRODUCT_RELATED_PRODUCT_CATEGORY ( 'detail', '', ( #181 ) ) ;
#157 = LOCAL_TIME ( 19, 36, 42.00000000000000000, #219 ) ;
#158 = CC_DESIGN_SECURITY_CLASSIFICATION ( #75, ( #117 ) ) ;
#159 = AXIS2_PLACEMENT_3D ( 'NONE', #225, #24, #2 ) ;
#160 = AXIS2_PLACEMENT_3D ( 'NONE', #224, #66, #85 ) ;
#161 = FACE_BOUND ( 'NONE', #147, .T. ) ;
#162 = PERSON_AND_ORGANIZATION ( #222, #119 ) ;
#163 = CYLINDRICAL_SURFACE ( 'NONE', #86, 3.500000000000000000 ) ;
#164 = VERTEX_POINT ( 'NONE', #80 ) ;
#165 = APPROVAL_STATUS ( 'not_yet_approved' ) ;
#166 = EDGE_LOOP ( 'NONE', ( #175, #253, #73, #109 ) ) ;
#167 = APPROVAL_STATUS ( 'not_yet_approved' ) ;
#168 = FACE_OUTER_BOUND ( 'NONE', #244, .T. ) ;
#169 = CC_DESIGN_APPROVAL ( #176, ( #117 ) ) ;
#170 = DIRECTION ( 'NONE',  ( -0.000000000000000000, -0.000000000000000000, -1.000000000000000000 ) ) ;
#171 = DIRECTION ( 'NONE',  ( 1.000000000000000000, 0.000000000000000000, 0.000000000000000000 ) ) ;
#172 = ORIENTED_EDGE ( 'NONE', *, *, #90, .F. ) ;
#173 = ADVANCED_BREP_SHAPE_REPRESENTATION ( '559c', ( #138, #160 ), #18 ) ;
#174 = FACE_OUTER_BOUND ( 'NONE', #17, .T. ) ;
#175 = ORIENTED_EDGE ( 'NONE', *, *, #40, .F. ) ;
#176 = APPROVAL ( #167, 'NEURÈENÝ' ) ;
#177 = VERTEX_POINT ( 'NONE', #93 ) ;
#178 = AXIS2_PLACEMENT_3D ( 'NONE', #15, #130, #110 ) ;
#179 = ADVANCED_FACE ( 'NONE', ( #174 ), #36, .T. ) ;
#180 = CIRCLE ( 'NONE', #127, 3.500000000000000000 ) ;
#181 = PRODUCT ( '559c', '559c', '', ( #51 ) ) ;
#182 = DIRECTION ( 'NONE',  ( 1.000000000000000000, 0.000000000000000000, 0.000000000000000000 ) ) ;
#183 = CC_DESIGN_PERSON_AND_ORGANIZATION_ASSIGNMENT ( #205, #108, ( #117 ) ) ;
#184 = DATE_TIME_ROLE ( 'classification_date' ) ;
#185 = DIRECTION ( 'NONE',  ( 1.000000000000000000, 0.000000000000000000, 0.000000000000000000 ) ) ;
#186 =( NAMED_UNIT ( * ) SI_UNIT ( $, .STERADIAN. ) SOLID_ANGLE_UNIT ( ) );
#187 = VERTEX_POINT ( 'NONE', #215 ) ;
#188 = PERSON_AND_ORGANIZATION ( #222, #119 ) ;
#189 = VERTEX_POINT ( 'NONE', #254 ) ;
#190 = APPROVAL_DATE_TIME ( #248, #176 ) ;
#191 = DIRECTION ( 'NONE',  ( -0.000000000000000000, -0.000000000000000000, -1.000000000000000000 ) ) ;
#192 = DIRECTION ( 'NONE',  ( 0.000000000000000000, 0.000000000000000000, 1.000000000000000000 ) ) ;
#193 = APPROVAL_PERSON_ORGANIZATION ( #25, #83, #247 ) ;
#194 = DIRECTION ( 'NONE',  ( 1.000000000000000000, 0.000000000000000000, -0.000000000000000000 ) ) ;
#195 = FACE_OUTER_BOUND ( 'NONE', #166, .T. ) ;
#196 = ORIENTED_EDGE ( 'NONE', *, *, #140, .T. ) ;
#197 = CIRCLE ( 'NONE', #232, 6.000000000000000888 ) ;
#198 = APPLICATION_CONTEXT ( 'configuration controlled 3d designs of mechanical parts and assemblies' ) ;
#199 = CALENDAR_DATE ( 2022, 7, 7 ) ;
#200 = AXIS2_PLACEMENT_3D ( 'NONE', #145, #228, #97 ) ;
#201 = ADVANCED_FACE ( 'NONE', ( #235 ), #34, .F. ) ;
#202 = FACE_OUTER_BOUND ( 'NONE', #100, .T. ) ;
#203 = CALENDAR_DATE ( 2022, 7, 7 ) ;
#204 = DIRECTION ( 'NONE',  ( 0.000000000000000000, 0.000000000000000000, 1.000000000000000000 ) ) ;
#205 = PERSON_AND_ORGANIZATION ( #222, #119 ) ;
#206 = UNCERTAINTY_MEASURE_WITH_UNIT (LENGTH_MEASURE( 1.000000000000000082E-05 ), #55, 'distance_accuracy_value', 'NONE');
#207 = EDGE_LOOP ( 'NONE', ( #49, #115, #89, #8 ) ) ;
#208 = APPROVAL_ROLE ( '' ) ;
#209 = ORIENTED_EDGE ( 'NONE', *, *, #137, .F. ) ;
#210 = PERSON_AND_ORGANIZATION ( #222, #119 ) ;
#211 = EDGE_CURVE ( 'NONE', #187, #164, #197, .T. ) ;
#212 = CARTESIAN_POINT ( 'NONE',  ( 0.000000000000000000, 0.000000000000000000, 5.000000000000000000 ) ) ;
#213 = DIRECTION ( 'NONE',  ( -1.000000000000000000, 0.000000000000000000, 0.000000000000000000 ) ) ;
#214 = AXIS2_PLACEMENT_3D ( 'NONE', #96, #113, #194 ) ;
#215 = CARTESIAN_POINT ( 'NONE',  ( 6.000000000000000888, 7.347880794884120722E-16, 0.000000000000000000 ) ) ;
#216 = ORIENTED_EDGE ( 'NONE', *, *, #137, .T. ) ;
#217 = DIRECTION ( 'NONE',  ( 1.000000000000000000, 0.000000000000000000, 0.000000000000000000 ) ) ;
#218 = ORIENTED_EDGE ( 'NONE', *, *, #22, .F. ) ;
#219 = COORDINATED_UNIVERSAL_TIME_OFFSET ( 1, 0, .AHEAD. ) ;
#220 = VECTOR ( 'NONE', #153, 1000.000000000000000 ) ;
#221 = ADVANCED_FACE ( 'NONE', ( #195 ), #14, .T. ) ;
#222 = PERSON ( 'NEURÈENÝ', 'NEURÈENÝ', 'NEURÈENÝ', ('NEURÈENÝ'), ('NEURÈENÝ'), ('NEURÈENÝ') ) ;
#223 = PRODUCT_DEFINITION ( 'NEZNÁMÝ', '', #117, #7 ) ;
#224 = CARTESIAN_POINT ( 'NONE',  ( 0.000000000000000000, 0.000000000000000000, 0.000000000000000000 ) ) ;
#225 = CARTESIAN_POINT ( 'NONE',  ( 0.000000000000000000, 0.000000000000000000, 0.000000000000000000 ) ) ;
#226 = PERSON_AND_ORGANIZATION_ROLE ( 'classification_officer' ) ;
#227 = ORIENTED_EDGE ( 'NONE', *, *, #56, .T. ) ;
#228 = DIRECTION ( 'NONE',  ( 0.000000000000000000, 0.000000000000000000, 1.000000000000000000 ) ) ;
#229 = COORDINATED_UNIVERSAL_TIME_OFFSET ( 1, 0, .AHEAD. ) ;
#230 = ORIENTED_EDGE ( 'NONE', *, *, #6, .T. ) ;
#231 =( NAMED_UNIT ( * ) PLANE_ANGLE_UNIT ( ) SI_UNIT ( $, .RADIAN. ) );
#232 = AXIS2_PLACEMENT_3D ( 'NONE', #57, #192, #217 ) ;
#233 = CARTESIAN_POINT ( 'NONE',  ( -3.500000000000000000, 0.000000000000000000, 105.0000000000000142 ) ) ;
#234 = PERSON_AND_ORGANIZATION_ROLE ( 'design_supplier' ) ;
#235 = FACE_OUTER_BOUND ( 'NONE', #10, .T. ) ;
#236 = CARTESIAN_POINT ( 'NONE',  ( 3.500000000000000000, 4.286263797015736595E-16, 105.0000000000000142 ) ) ;
#237 = CC_DESIGN_PERSON_AND_ORGANIZATION_ASSIGNMENT ( #28, #105, ( #181 ) ) ;
#238 = CARTESIAN_POINT ( 'NONE',  ( 0.000000000000000000, 0.000000000000000000, 5.000000000000000000 ) ) ;
#239 = DIRECTION ( 'NONE',  ( 0.000000000000000000, 0.000000000000000000, 1.000000000000000000 ) ) ;
#240 = CC_DESIGN_PERSON_AND_ORGANIZATION_ASSIGNMENT ( #188, #234, ( #117 ) ) ;
#241 = LOCAL_TIME ( 19, 36, 42.00000000000000000, #88 ) ;
#242 = CARTESIAN_POINT ( 'NONE',  ( 0.000000000000000000, 0.000000000000000000, 5.000000000000000000 ) ) ;
#243 = COORDINATED_UNIVERSAL_TIME_OFFSET ( 1, 0, .AHEAD. ) ;
#244 = EDGE_LOOP ( 'NONE', ( #172, #91, #81, #196 ) ) ;
#245 = DIRECTION ( 'NONE',  ( -0.000000000000000000, -0.000000000000000000, -1.000000000000000000 ) ) ;
#246 = ORIENTED_EDGE ( 'NONE', *, *, #22, .T. ) ;
#247 = APPROVAL_ROLE ( '' ) ;
#248 = DATE_AND_TIME ( #31, #149 ) ;
#249 = AXIS2_PLACEMENT_3D ( 'NONE', #95, #170, #155 ) ;
#250 = CARTESIAN_POINT ( 'NONE',  ( -3.500000000000000000, 0.000000000000000000, 105.0000000000000142 ) ) ;
#251 = LINE ( 'NONE', #233, #220 ) ;
#252 = CARTESIAN_POINT ( 'NONE',  ( 3.500000000000000000, 4.286263797015736595E-16, 105.0000000000000142 ) ) ;
#253 = ORIENTED_EDGE ( 'NONE', *, *, #65, .T. ) ;
#254 = CARTESIAN_POINT ( 'NONE',  ( -6.000000000000000888, 0.000000000000000000, 5.000000000000000000 ) ) ;
#255 = EDGE_LOOP ( 'NONE', ( #218, #37, #216, #52 ) ) ;
ENDSEC;
END-ISO-10303-21;
