ISO-10303-21;
HEADER;
FILE_DESCRIPTION (( 'STEP AP203' ),
    '1' );
FILE_NAME ('f53a.STEP',
    '2022-07-07T17:09:56',
    ( '' ),
    ( '' ),
    'SwSTEP 2.0',
    'SolidWorks 2019',
    '' );
FILE_SCHEMA (( 'CONFIG_CONTROL_DESIGN' ));
ENDSEC;

DATA;
#1 = PERSON_AND_ORGANIZATION ( #153, #107 ) ;
#2 = DIRECTION ( 'NONE',  ( 0.000000000000000000, 0.000000000000000000, 1.000000000000000000 ) ) ;
#3 = PERSON_AND_ORGANIZATION_ROLE ( 'classification_officer' ) ;
#4 = AXIS2_PLACEMENT_3D ( 'NONE', #171, #112, #119 ) ;
#5 = ADVANCED_FACE ( 'NONE', ( #33 ), #213, .T. ) ;
#6 = CALENDAR_DATE ( 2022, 7, 7 ) ;
#7 = VECTOR ( 'NONE', #227, 1000.000000000000000 ) ;
#8 = ORIENTED_EDGE ( 'NONE', *, *, #103, .F. ) ;
#9 = CARTESIAN_POINT ( 'NONE',  ( 0.000000000000000000, 0.000000000000000000, 7.000000000000000000 ) ) ;
#10 = CC_DESIGN_PERSON_AND_ORGANIZATION_ASSIGNMENT ( #156, #138, ( #204 ) ) ;
#11 = ORIENTED_EDGE ( 'NONE', *, *, #236, .F. ) ;
#12 = ADVANCED_BREP_SHAPE_REPRESENTATION ( 'f53a', ( #206, #28 ), #146 ) ;
#13 = DIRECTION ( 'NONE',  ( 1.000000000000000000, 0.000000000000000000, 0.000000000000000000 ) ) ;
#14 = CIRCLE ( 'NONE', #163, 7.500000000000000000 ) ;
#15 = ORIENTED_EDGE ( 'NONE', *, *, #67, .T. ) ;
#16 = CC_DESIGN_DATE_AND_TIME_ASSIGNMENT ( #220, #44, ( #45 ) ) ;
#17 = PERSON_AND_ORGANIZATION ( #153, #107 ) ;
#18 = DIRECTION ( 'NONE',  ( 1.000000000000000000, 0.000000000000000000, 0.000000000000000000 ) ) ;
#19 = DIRECTION ( 'NONE',  ( 0.000000000000000000, 0.000000000000000000, 1.000000000000000000 ) ) ;
#20 = APPROVAL_STATUS ( 'not_yet_approved' ) ;
#21 = DIRECTION ( 'NONE',  ( 0.000000000000000000, 0.000000000000000000, 1.000000000000000000 ) ) ;
#22 = FACE_OUTER_BOUND ( 'NONE', #111, .T. ) ;
#23 = CIRCLE ( 'NONE', #217, 11.00000000000000000 ) ;
#24 =( NAMED_UNIT ( * ) SI_UNIT ( $, .STERADIAN. ) SOLID_ANGLE_UNIT ( ) );
#25 = CYLINDRICAL_SURFACE ( 'NONE', #31, 11.00000000000000000 ) ;
#26 = CARTESIAN_POINT ( 'NONE',  ( 0.000000000000000000, 0.000000000000000000, 7.000000000000000000 ) ) ;
#27 = PERSON_AND_ORGANIZATION ( #153, #107 ) ;
#28 = AXIS2_PLACEMENT_3D ( 'NONE', #50, #87, #116 ) ;
#29 = AXIS2_PLACEMENT_3D ( 'NONE', #174, #188, #13 ) ;
#30 = EDGE_CURVE ( 'NONE', #247, #242, #189, .T. ) ;
#31 = AXIS2_PLACEMENT_3D ( 'NONE', #120, #59, #234 ) ;
#32 = EDGE_LOOP ( 'NONE', ( #169, #241, #186, #8 ) ) ;
#33 = FACE_OUTER_BOUND ( 'NONE', #245, .T. ) ;
#34 = LINE ( 'NONE', #39, #132 ) ;
#35 = VERTEX_POINT ( 'NONE', #192 ) ;
#36 = DIRECTION ( 'NONE',  ( 1.000000000000000000, 0.000000000000000000, 0.000000000000000000 ) ) ;
#37 = CIRCLE ( 'NONE', #235, 11.00000000000000000 ) ;
#38 = CC_DESIGN_DATE_AND_TIME_ASSIGNMENT ( #101, #145, ( #204 ) ) ;
#39 = CARTESIAN_POINT ( 'NONE',  ( 11.00000000000000000, 1.347111479062088405E-15, 7.000000000000000000 ) ) ;
#40 = DIRECTION ( 'NONE',  ( -0.000000000000000000, -0.000000000000000000, -1.000000000000000000 ) ) ;
#41 = ADVANCED_FACE ( 'NONE', ( #209 ), #92, .T. ) ;
#42 = CLOSED_SHELL ( 'NONE', ( #41, #191, #177, #123, #137, #251, #5 ) ) ;
#43 = DIRECTION ( 'NONE',  ( -1.000000000000000000, 0.000000000000000000, 0.000000000000000000 ) ) ;
#44 = DATE_TIME_ROLE ( 'classification_date' ) ;
#45 = SECURITY_CLASSIFICATION ( '', '', #182 ) ;
#46 = APPROVAL_PERSON_ORGANIZATION ( #150, #129, #118 ) ;
#47 = APPROVAL_DATE_TIME ( #85, #222 ) ;
#48 = ORIENTED_EDGE ( 'NONE', *, *, #106, .T. ) ;
#49 = EDGE_CURVE ( 'NONE', #113, #35, #34, .T. ) ;
#50 = CARTESIAN_POINT ( 'NONE',  ( 0.000000000000000000, 0.000000000000000000, 0.000000000000000000 ) ) ;
#51 = DIRECTION ( 'NONE',  ( 0.000000000000000000, 0.000000000000000000, 1.000000000000000000 ) ) ;
#52 = ORIENTED_EDGE ( 'NONE', *, *, #81, .F. ) ;
#53 = ORIENTED_EDGE ( 'NONE', *, *, #81, .T. ) ;
#54 = ORIENTED_EDGE ( 'NONE', *, *, #151, .F. ) ;
#55 = DIRECTION ( 'NONE',  ( 1.000000000000000000, 0.000000000000000000, 0.000000000000000000 ) ) ;
#56 = DIRECTION ( 'NONE',  ( 1.000000000000000000, 0.000000000000000000, 0.000000000000000000 ) ) ;
#57 = AXIS2_PLACEMENT_3D ( 'NONE', #157, #75, #90 ) ;
#58 = CARTESIAN_POINT ( 'NONE',  ( 0.000000000000000000, 0.000000000000000000, 0.000000000000000000 ) ) ;
#59 = DIRECTION ( 'NONE',  ( -0.000000000000000000, -0.000000000000000000, -1.000000000000000000 ) ) ;
#60 = DIRECTION ( 'NONE',  ( 1.000000000000000000, 0.000000000000000000, 0.000000000000000000 ) ) ;
#61 = CC_DESIGN_PERSON_AND_ORGANIZATION_ASSIGNMENT ( #105, #3, ( #45 ) ) ;
#62 = COORDINATED_UNIVERSAL_TIME_OFFSET ( 1, 0, .AHEAD. ) ;
#63 = APPROVAL_ROLE ( '' ) ;
#64 = EDGE_CURVE ( 'NONE', #185, #35, #37, .T. ) ;
#65 = CIRCLE ( 'NONE', #29, 7.500000000000000000 ) ;
#66 = UNCERTAINTY_MEASURE_WITH_UNIT (LENGTH_MEASURE( 1.000000000000000082E-05 ), #159, 'distance_accuracy_value', 'NONE');
#67 = EDGE_CURVE ( 'NONE', #190, #113, #165, .T. ) ;
#68 = APPLICATION_PROTOCOL_DEFINITION ( 'international standard', 'config_control_design', 1994, #252 ) ;
#69 = DESIGN_CONTEXT ( 'detailed design', #252, 'design' ) ;
#70 = ORIENTED_EDGE ( 'NONE', *, *, #106, .F. ) ;
#71 = AXIS2_PLACEMENT_3D ( 'NONE', #135, #117, #250 ) ;
#72 = CARTESIAN_POINT ( 'NONE',  ( 0.000000000000000000, 0.000000000000000000, 0.000000000000000000 ) ) ;
#73 = DIRECTION ( 'NONE',  ( 0.000000000000000000, 0.000000000000000000, 1.000000000000000000 ) ) ;
#74 = APPROVAL_DATE_TIME ( #249, #129 ) ;
#75 = DIRECTION ( 'NONE',  ( 0.000000000000000000, 0.000000000000000000, 1.000000000000000000 ) ) ;
#76 = CYLINDRICAL_SURFACE ( 'NONE', #207, 7.500000000000000000 ) ;
#77 = EDGE_CURVE ( 'NONE', #223, #247, #65, .T. ) ;
#78 = LINE ( 'NONE', #100, #104 ) ;
#79 = LOCAL_TIME ( 19, 9, 56.00000000000000000, #212 ) ;
#80 = APPROVAL_DATE_TIME ( #179, #109 ) ;
#81 = EDGE_CURVE ( 'NONE', #242, #94, #211, .T. ) ;
#82 = PERSON_AND_ORGANIZATION ( #153, #107 ) ;
#83 = PRODUCT_DEFINITION_SHAPE ( 'NONE', 'NONE',  #204 ) ;
#84 = LOCAL_TIME ( 19, 9, 56.00000000000000000, #199 ) ;
#85 = DATE_AND_TIME ( #6, #246 ) ;
#86 = EDGE_LOOP ( 'NONE', ( #15, #131 ) ) ;
#87 = DIRECTION ( 'NONE',  ( 0.000000000000000000, 0.000000000000000000, 1.000000000000000000 ) ) ;
#88 = DIRECTION ( 'NONE',  ( -0.000000000000000000, -0.000000000000000000, -1.000000000000000000 ) ) ;
#89 = ORIENTED_EDGE ( 'NONE', *, *, #30, .F. ) ;
#90 = DIRECTION ( 'NONE',  ( 1.000000000000000000, 0.000000000000000000, 0.000000000000000000 ) ) ;
#91 = EDGE_CURVE ( 'NONE', #35, #185, #115, .T. ) ;
#92 = CYLINDRICAL_SURFACE ( 'NONE', #4, 7.500000000000000000 ) ;
#93 = PERSON_AND_ORGANIZATION_ROLE ( 'design_owner' ) ;
#94 = VERTEX_POINT ( 'NONE', #225 ) ;
#95 = DIRECTION ( 'NONE',  ( -1.000000000000000000, 0.000000000000000000, 0.000000000000000000 ) ) ;
#96 = MECHANICAL_CONTEXT ( 'NONE', #203, 'mechanical' ) ;
#97 = ORIENTED_EDGE ( 'NONE', *, *, #49, .F. ) ;
#98 = DIRECTION ( 'NONE',  ( -0.000000000000000000, -0.000000000000000000, -1.000000000000000000 ) ) ;
#99 = APPROVAL_PERSON_ORGANIZATION ( #218, #109, #201 ) ;
#100 = CARTESIAN_POINT ( 'NONE',  ( -7.500000000000000000, 0.000000000000000000, 407.0000000000000000 ) ) ;
#101 = DATE_AND_TIME ( #193, #79 ) ;
#102 = CARTESIAN_POINT ( 'NONE',  ( 0.000000000000000000, 0.000000000000000000, 7.000000000000000000 ) ) ;
#103 = EDGE_CURVE ( 'NONE', #190, #185, #154, .T. ) ;
#104 = VECTOR ( 'NONE', #40, 1000.000000000000000 ) ;
#105 = PERSON_AND_ORGANIZATION ( #153, #107 ) ;
#106 = EDGE_CURVE ( 'NONE', #247, #223, #183, .T. ) ;
#107 = ORGANIZATION ( 'NEURÈENÝ', 'NEURÈENÝ', '' ) ;
#108 = CC_DESIGN_APPROVAL ( #109, ( #197 ) ) ;
#109 = APPROVAL ( #122, 'NEURÈENÝ' ) ;
#110 = AXIS2_PLACEMENT_3D ( 'NONE', #230, #51, #55 ) ;
#111 = EDGE_LOOP ( 'NONE', ( #89, #130, #243, #170 ) ) ;
#112 = DIRECTION ( 'NONE',  ( -0.000000000000000000, -0.000000000000000000, -1.000000000000000000 ) ) ;
#113 = VERTEX_POINT ( 'NONE', #168 ) ;
#114 = ORIENTED_EDGE ( 'NONE', *, *, #67, .F. ) ;
#115 = CIRCLE ( 'NONE', #57, 11.00000000000000000 ) ;
#116 = DIRECTION ( 'NONE',  ( 1.000000000000000000, 0.000000000000000000, 0.000000000000000000 ) ) ;
#117 = DIRECTION ( 'NONE',  ( 0.000000000000000000, 0.000000000000000000, 1.000000000000000000 ) ) ;
#118 = APPROVAL_ROLE ( '' ) ;
#119 = DIRECTION ( 'NONE',  ( -1.000000000000000000, 0.000000000000000000, 0.000000000000000000 ) ) ;
#120 = CARTESIAN_POINT ( 'NONE',  ( 0.000000000000000000, 0.000000000000000000, 7.000000000000000000 ) ) ;
#121 = DIRECTION ( 'NONE',  ( 1.000000000000000000, 0.000000000000000000, 0.000000000000000000 ) ) ;
#122 = APPROVAL_STATUS ( 'not_yet_approved' ) ;
#123 = ADVANCED_FACE ( 'NONE', ( #134, #253 ), #143, .T. ) ;
#124 = CARTESIAN_POINT ( 'NONE',  ( 7.500000000000000000, 9.184850993605147944E-16, 407.0000000000000000 ) ) ;
#125 = PERSON_AND_ORGANIZATION_ROLE ( 'creator' ) ;
#126 = AXIS2_PLACEMENT_3D ( 'NONE', #9, #73, #18 ) ;
#127 = PRODUCT ( 'f53a', 'f53a', '', ( #96 ) ) ;
#128 = AXIS2_PLACEMENT_3D ( 'NONE', #180, #2, #176 ) ;
#129 = APPROVAL ( #20, 'NEURÈENÝ' ) ;
#130 = ORIENTED_EDGE ( 'NONE', *, *, #77, .F. ) ;
#131 = ORIENTED_EDGE ( 'NONE', *, *, #239, .T. ) ;
#132 = VECTOR ( 'NONE', #194, 1000.000000000000000 ) ;
#133 = CC_DESIGN_PERSON_AND_ORGANIZATION_ASSIGNMENT ( #82, #125, ( #197 ) ) ;
#134 = FACE_BOUND ( 'NONE', #208, .T. ) ;
#135 = CARTESIAN_POINT ( 'NONE',  ( 0.000000000000000000, 0.000000000000000000, 407.0000000000000000 ) ) ;
#136 = CARTESIAN_POINT ( 'NONE',  ( 7.500000000000000000, 9.184850993605147944E-16, 407.0000000000000000 ) ) ;
#137 = ADVANCED_FACE ( 'NONE', ( #254 ), #195, .F. ) ;
#138 = PERSON_AND_ORGANIZATION_ROLE ( 'creator' ) ;
#139 = CARTESIAN_POINT ( 'NONE',  ( 0.000000000000000000, 0.000000000000000000, 7.000000000000000000 ) ) ;
#140 = FACE_OUTER_BOUND ( 'NONE', #32, .T. ) ;
#141 =( NAMED_UNIT ( * ) PLANE_ANGLE_UNIT ( ) SI_UNIT ( $, .RADIAN. ) );
#142 = CC_DESIGN_APPROVAL ( #222, ( #45 ) ) ;
#143 = PLANE ( 'NONE',  #128 ) ;
#144 = CALENDAR_DATE ( 2022, 7, 7 ) ;
#145 = DATE_TIME_ROLE ( 'creation_date' ) ;
#146 =( GEOMETRIC_REPRESENTATION_CONTEXT ( 3 ) GLOBAL_UNCERTAINTY_ASSIGNED_CONTEXT ( ( #66 ) ) GLOBAL_UNIT_ASSIGNED_CONTEXT ( ( #159, #141, #24 ) ) REPRESENTATION_CONTEXT ( 'NONE', 'WORKASPACE' ) );
#147 = AXIS2_PLACEMENT_3D ( 'NONE', #139, #21, #56 ) ;
#148 = SHAPE_DEFINITION_REPRESENTATION ( #83, #12 ) ;
#149 = ORIENTED_EDGE ( 'NONE', *, *, #91, .F. ) ;
#150 = PERSON_AND_ORGANIZATION ( #153, #107 ) ;
#151 = EDGE_CURVE ( 'NONE', #94, #242, #14, .T. ) ;
#152 = DIRECTION ( 'NONE',  ( 0.000000000000000000, 0.000000000000000000, 1.000000000000000000 ) ) ;
#153 = PERSON ( 'NEURÈENÝ', 'NEURÈENÝ', 'NEURÈENÝ', ('NEURÈENÝ'), ('NEURÈENÝ'), ('NEURÈENÝ') ) ;
#154 = LINE ( 'NONE', #229, #202 ) ;
#155 = EDGE_LOOP ( 'NONE', ( #70, #248, #53, #11 ) ) ;
#156 = PERSON_AND_ORGANIZATION ( #153, #107 ) ;
#157 = CARTESIAN_POINT ( 'NONE',  ( 0.000000000000000000, 0.000000000000000000, 0.000000000000000000 ) ) ;
#158 = LOCAL_TIME ( 19, 9, 56.00000000000000000, #173 ) ;
#159 =( LENGTH_UNIT ( ) NAMED_UNIT ( * ) SI_UNIT ( .MILLI., .METRE. ) );
#160 = DIRECTION ( 'NONE',  ( 0.000000000000000000, 0.000000000000000000, 1.000000000000000000 ) ) ;
#161 = CC_DESIGN_PERSON_AND_ORGANIZATION_ASSIGNMENT ( #1, #237, ( #197 ) ) ;
#162 = CARTESIAN_POINT ( 'NONE',  ( 7.500000000000000000, 9.184850993605147944E-16, 7.000000000000000000 ) ) ;
#163 = AXIS2_PLACEMENT_3D ( 'NONE', #102, #160, #60 ) ;
#164 = CALENDAR_DATE ( 2022, 7, 7 ) ;
#165 = CIRCLE ( 'NONE', #147, 11.00000000000000000 ) ;
#166 = CC_DESIGN_APPROVAL ( #129, ( #204 ) ) ;
#167 = APPLICATION_PROTOCOL_DEFINITION ( 'international standard', 'config_control_design', 1994, #203 ) ;
#168 = CARTESIAN_POINT ( 'NONE',  ( 11.00000000000000000, 1.347111479062088405E-15, 7.000000000000000000 ) ) ;
#169 = ORIENTED_EDGE ( 'NONE', *, *, #239, .F. ) ;
#170 = ORIENTED_EDGE ( 'NONE', *, *, #151, .T. ) ;
#171 = CARTESIAN_POINT ( 'NONE',  ( 0.000000000000000000, 0.000000000000000000, 407.0000000000000000 ) ) ;
#172 = CC_DESIGN_PERSON_AND_ORGANIZATION_ASSIGNMENT ( #17, #93, ( #127 ) ) ;
#173 = COORDINATED_UNIVERSAL_TIME_OFFSET ( 1, 0, .AHEAD. ) ;
#174 = CARTESIAN_POINT ( 'NONE',  ( 0.000000000000000000, 0.000000000000000000, 407.0000000000000000 ) ) ;
#175 = ORIENTED_EDGE ( 'NONE', *, *, #64, .T. ) ;
#176 = DIRECTION ( 'NONE',  ( 1.000000000000000000, 0.000000000000000000, -0.000000000000000000 ) ) ;
#177 = ADVANCED_FACE ( 'NONE', ( #255 ), #215, .T. ) ;
#178 = CARTESIAN_POINT ( 'NONE',  ( -11.00000000000000000, 0.000000000000000000, 7.000000000000000000 ) ) ;
#179 = DATE_AND_TIME ( #164, #84 ) ;
#180 = CARTESIAN_POINT ( 'NONE',  ( 0.000000000000000000, 0.000000000000000000, 7.000000000000000000 ) ) ;
#181 = AXIS2_PLACEMENT_3D ( 'NONE', #219, #200, #43 ) ;
#182 = SECURITY_CLASSIFICATION_LEVEL ( 'unclassified' ) ;
#183 = CIRCLE ( 'NONE', #110, 7.500000000000000000 ) ;
#184 = LOCAL_TIME ( 19, 9, 56.00000000000000000, #62 ) ;
#185 = VERTEX_POINT ( 'NONE', #196 ) ;
#186 = ORIENTED_EDGE ( 'NONE', *, *, #91, .T. ) ;
#187 = ORIENTED_EDGE ( 'NONE', *, *, #103, .T. ) ;
#188 = DIRECTION ( 'NONE',  ( 0.000000000000000000, 0.000000000000000000, 1.000000000000000000 ) ) ;
#189 = LINE ( 'NONE', #136, #7 ) ;
#190 = VERTEX_POINT ( 'NONE', #178 ) ;
#191 = ADVANCED_FACE ( 'NONE', ( #140 ), #25, .T. ) ;
#192 = CARTESIAN_POINT ( 'NONE',  ( 11.00000000000000000, 1.347111479062088405E-15, 0.000000000000000000 ) ) ;
#193 = CALENDAR_DATE ( 2022, 7, 7 ) ;
#194 = DIRECTION ( 'NONE',  ( -0.000000000000000000, -0.000000000000000000, -1.000000000000000000 ) ) ;
#195 = PLANE ( 'NONE',  #240 ) ;
#196 = CARTESIAN_POINT ( 'NONE',  ( -11.00000000000000000, 0.000000000000000000, 0.000000000000000000 ) ) ;
#197 = PRODUCT_DEFINITION_FORMATION_WITH_SPECIFIED_SOURCE ( 'LIBOVOLNÝ', '', #127, .NOT_KNOWN. ) ;
#198 = CARTESIAN_POINT ( 'NONE',  ( 0.000000000000000000, 0.000000000000000000, 407.0000000000000000 ) ) ;
#199 = COORDINATED_UNIVERSAL_TIME_OFFSET ( 1, 0, .AHEAD. ) ;
#200 = DIRECTION ( 'NONE',  ( -0.000000000000000000, -0.000000000000000000, -1.000000000000000000 ) ) ;
#201 = APPROVAL_ROLE ( '' ) ;
#202 = VECTOR ( 'NONE', #88, 1000.000000000000000 ) ;
#203 = APPLICATION_CONTEXT ( 'configuration controlled 3d designs of mechanical parts and assemblies' ) ;
#204 = PRODUCT_DEFINITION ( 'NEZNÁMÝ', '', #197, #69 ) ;
#205 = COORDINATED_UNIVERSAL_TIME_OFFSET ( 1, 0, .AHEAD. ) ;
#206 = MANIFOLD_SOLID_BREP ( 'Pøidat vysunutím3', #42 ) ;
#207 = AXIS2_PLACEMENT_3D ( 'NONE', #198, #98, #95 ) ;
#208 = EDGE_LOOP ( 'NONE', ( #54, #52 ) ) ;
#209 = FACE_OUTER_BOUND ( 'NONE', #155, .T. ) ;
#210 = ORIENTED_EDGE ( 'NONE', *, *, #64, .F. ) ;
#211 = CIRCLE ( 'NONE', #126, 7.500000000000000000 ) ;
#212 = COORDINATED_UNIVERSAL_TIME_OFFSET ( 1, 0, .AHEAD. ) ;
#213 = PLANE ( 'NONE',  #71 ) ;
#214 = CARTESIAN_POINT ( 'NONE',  ( -7.500000000000000000, 0.000000000000000000, 407.0000000000000000 ) ) ;
#215 = CYLINDRICAL_SURFACE ( 'NONE', #181, 11.00000000000000000 ) ;
#216 = APPROVAL_PERSON_ORGANIZATION ( #27, #222, #63 ) ;
#217 = AXIS2_PLACEMENT_3D ( 'NONE', #26, #19, #121 ) ;
#218 = PERSON_AND_ORGANIZATION ( #153, #107 ) ;
#219 = CARTESIAN_POINT ( 'NONE',  ( 0.000000000000000000, 0.000000000000000000, 7.000000000000000000 ) ) ;
#220 = DATE_AND_TIME ( #144, #184 ) ;
#221 = CC_DESIGN_SECURITY_CLASSIFICATION ( #45, ( #197 ) ) ;
#222 = APPROVAL ( #238, 'NEURÈENÝ' ) ;
#223 = VERTEX_POINT ( 'NONE', #214 ) ;
#224 = CALENDAR_DATE ( 2022, 7, 7 ) ;
#225 = CARTESIAN_POINT ( 'NONE',  ( -7.500000000000000000, 0.000000000000000000, 7.000000000000000000 ) ) ;
#226 = EDGE_LOOP ( 'NONE', ( #210, #149 ) ) ;
#227 = DIRECTION ( 'NONE',  ( -0.000000000000000000, -0.000000000000000000, -1.000000000000000000 ) ) ;
#228 = ORIENTED_EDGE ( 'NONE', *, *, #77, .T. ) ;
#229 = CARTESIAN_POINT ( 'NONE',  ( -11.00000000000000000, 0.000000000000000000, 7.000000000000000000 ) ) ;
#230 = CARTESIAN_POINT ( 'NONE',  ( 0.000000000000000000, 0.000000000000000000, 407.0000000000000000 ) ) ;
#231 = PRODUCT_RELATED_PRODUCT_CATEGORY ( 'detail', '', ( #127 ) ) ;
#232 = DIRECTION ( 'NONE',  ( 0.000000000000000000, 0.000000000000000000, 1.000000000000000000 ) ) ;
#233 = DIRECTION ( 'NONE',  ( 1.000000000000000000, 0.000000000000000000, -0.000000000000000000 ) ) ;
#234 = DIRECTION ( 'NONE',  ( -1.000000000000000000, 0.000000000000000000, 0.000000000000000000 ) ) ;
#235 = AXIS2_PLACEMENT_3D ( 'NONE', #72, #152, #36 ) ;
#236 = EDGE_CURVE ( 'NONE', #223, #94, #78, .T. ) ;
#237 = PERSON_AND_ORGANIZATION_ROLE ( 'design_supplier' ) ;
#238 = APPROVAL_STATUS ( 'not_yet_approved' ) ;
#239 = EDGE_CURVE ( 'NONE', #113, #190, #23, .T. ) ;
#240 = AXIS2_PLACEMENT_3D ( 'NONE', #58, #232, #233 ) ;
#241 = ORIENTED_EDGE ( 'NONE', *, *, #49, .T. ) ;
#242 = VERTEX_POINT ( 'NONE', #162 ) ;
#243 = ORIENTED_EDGE ( 'NONE', *, *, #236, .T. ) ;
#244 = EDGE_LOOP ( 'NONE', ( #97, #114, #187, #175 ) ) ;
#245 = EDGE_LOOP ( 'NONE', ( #228, #48 ) ) ;
#246 = LOCAL_TIME ( 19, 9, 56.00000000000000000, #205 ) ;
#247 = VERTEX_POINT ( 'NONE', #124 ) ;
#248 = ORIENTED_EDGE ( 'NONE', *, *, #30, .T. ) ;
#249 = DATE_AND_TIME ( #224, #158 ) ;
#250 = DIRECTION ( 'NONE',  ( 1.000000000000000000, 0.000000000000000000, -0.000000000000000000 ) ) ;
#251 = ADVANCED_FACE ( 'NONE', ( #22 ), #76, .T. ) ;
#252 = APPLICATION_CONTEXT ( 'configuration controlled 3d designs of mechanical parts and assemblies' ) ;
#253 = FACE_OUTER_BOUND ( 'NONE', #86, .T. ) ;
#254 = FACE_OUTER_BOUND ( 'NONE', #226, .T. ) ;
#255 = FACE_OUTER_BOUND ( 'NONE', #244, .T. ) ;
ENDSEC;
END-ISO-10303-21;
