ISO-10303-21;
HEADER;
FILE_DESCRIPTION (( 'STEP AP203' ),
    '1' );
FILE_NAME ('219c.STEP',
    '2022-07-07T17:44:03',
    ( '' ),
    ( '' ),
    'SwSTEP 2.0',
    'SolidWorks 2019',
    '' );
FILE_SCHEMA (( 'CONFIG_CONTROL_DESIGN' ));
ENDSEC;

DATA;
#1 = DIRECTION ( 'NONE',  ( 0.000000000000000000, 0.000000000000000000, 1.000000000000000000 ) ) ;
#2 = CC_DESIGN_APPROVAL ( #31, ( #103 ) ) ;
#3 = DIRECTION ( 'NONE',  ( -0.000000000000000000, -0.000000000000000000, -1.000000000000000000 ) ) ;
#4 = FACE_OUTER_BOUND ( 'NONE', #44, .T. ) ;
#5 = EDGE_CURVE ( 'NONE', #251, #56, #25, .T. ) ;
#6 = ORIENTED_EDGE ( 'NONE', *, *, #122, .F. ) ;
#7 = EDGE_LOOP ( 'NONE', ( #123, #6 ) ) ;
#8 = PERSON_AND_ORGANIZATION_ROLE ( 'creator' ) ;
#9 = UNCERTAINTY_MEASURE_WITH_UNIT (LENGTH_MEASURE( 1.000000000000000082E-05 ), #184, 'distance_accuracy_value', 'NONE');
#10 = LOCAL_TIME ( 19, 44, 3.000000000000000000, #128 ) ;
#11 = APPROVAL_STATUS ( 'not_yet_approved' ) ;
#12 = DIRECTION ( 'NONE',  ( -1.000000000000000000, 0.000000000000000000, 0.000000000000000000 ) ) ;
#13 = CARTESIAN_POINT ( 'NONE',  ( 0.000000000000000000, 0.000000000000000000, 0.000000000000000000 ) ) ;
#14 = ORIENTED_EDGE ( 'NONE', *, *, #202, .T. ) ;
#15 = CARTESIAN_POINT ( 'NONE',  ( 0.000000000000000000, 0.000000000000000000, 163.0000000000000000 ) ) ;
#16 = APPROVAL_PERSON_ORGANIZATION ( #105, #96, #86 ) ;
#17 = CC_DESIGN_PERSON_AND_ORGANIZATION_ASSIGNMENT ( #45, #200, ( #103 ) ) ;
#18 = CARTESIAN_POINT ( 'NONE',  ( 0.000000000000000000, 0.000000000000000000, 3.000000000000000000 ) ) ;
#19 = CARTESIAN_POINT ( 'NONE',  ( 0.000000000000000000, 0.000000000000000000, 3.000000000000000000 ) ) ;
#20 = ORIENTED_EDGE ( 'NONE', *, *, #244, .T. ) ;
#21 = DIRECTION ( 'NONE',  ( 1.000000000000000000, 0.000000000000000000, -0.000000000000000000 ) ) ;
#22 = PRODUCT_DEFINITION_SHAPE ( 'NONE', 'NONE',  #43 ) ;
#23 = PLANE ( 'NONE',  #223 ) ;
#24 = CIRCLE ( 'NONE', #155, 5.000000000000000000 ) ;
#25 = LINE ( 'NONE', #102, #46 ) ;
#26 = PERSON_AND_ORGANIZATION_ROLE ( 'creator' ) ;
#27 = CARTESIAN_POINT ( 'NONE',  ( 0.000000000000000000, 0.000000000000000000, 0.000000000000000000 ) ) ;
#28 = PERSON_AND_ORGANIZATION ( #88, #190 ) ;
#29 = MECHANICAL_CONTEXT ( 'NONE', #235, 'mechanical' ) ;
#30 = DATE_AND_TIME ( #68, #10 ) ;
#31 = APPROVAL ( #221, 'NEURÈENÝ' ) ;
#32 = VECTOR ( 'NONE', #114, 1000.000000000000000 ) ;
#33 = CARTESIAN_POINT ( 'NONE',  ( 5.000000000000000000, 6.123233995736766282E-16, 3.000000000000000000 ) ) ;
#34 = DIRECTION ( 'NONE',  ( 0.000000000000000000, 0.000000000000000000, 1.000000000000000000 ) ) ;
#35 = CARTESIAN_POINT ( 'NONE',  ( -5.000000000000000000, 0.000000000000000000, 3.000000000000000000 ) ) ;
#36 = DIRECTION ( 'NONE',  ( 1.000000000000000000, 0.000000000000000000, -0.000000000000000000 ) ) ;
#37 = ADVANCED_FACE ( 'NONE', ( #4 ), #104, .T. ) ;
#38 = EDGE_LOOP ( 'NONE', ( #79, #198 ) ) ;
#39 = CC_DESIGN_PERSON_AND_ORGANIZATION_ASSIGNMENT ( #179, #26, ( #103 ) ) ;
#40 = DIRECTION ( 'NONE',  ( 0.000000000000000000, 0.000000000000000000, 1.000000000000000000 ) ) ;
#41 = ORIENTED_EDGE ( 'NONE', *, *, #196, .T. ) ;
#42 = ORIENTED_EDGE ( 'NONE', *, *, #244, .F. ) ;
#43 = PRODUCT_DEFINITION ( 'NEZNÁMÝ', '', #103, #81 ) ;
#44 = EDGE_LOOP ( 'NONE', ( #177, #253, #20, #134 ) ) ;
#45 = PERSON_AND_ORGANIZATION ( #88, #190 ) ;
#46 = VECTOR ( 'NONE', #119, 1000.000000000000000 ) ;
#47 = APPROVAL_DATE_TIME ( #30, #96 ) ;
#48 = APPROVAL_ROLE ( '' ) ;
#49 = CARTESIAN_POINT ( 'NONE',  ( -5.000000000000000000, 0.000000000000000000, 3.000000000000000000 ) ) ;
#50 = SHAPE_DEFINITION_REPRESENTATION ( #22, #192 ) ;
#51 = CARTESIAN_POINT ( 'NONE',  ( -2.750000000000000000, 0.000000000000000000, 163.0000000000000000 ) ) ;
#52 = FACE_OUTER_BOUND ( 'NONE', #90, .T. ) ;
#53 = DIRECTION ( 'NONE',  ( 1.000000000000000000, 0.000000000000000000, 0.000000000000000000 ) ) ;
#54 = MANIFOLD_SOLID_BREP ( 'Pøidat vysunutím3', #180 ) ;
#55 = EDGE_LOOP ( 'NONE', ( #139, #41, #82, #174 ) ) ;
#56 = VERTEX_POINT ( 'NONE', #158 ) ;
#57 = CC_DESIGN_DATE_AND_TIME_ASSIGNMENT ( #62, #85, ( #43 ) ) ;
#58 = FACE_OUTER_BOUND ( 'NONE', #55, .T. ) ;
#59 = VERTEX_POINT ( 'NONE', #80 ) ;
#60 = EDGE_CURVE ( 'NONE', #59, #56, #250, .T. ) ;
#61 = CIRCLE ( 'NONE', #207, 2.750000000000000000 ) ;
#62 = DATE_AND_TIME ( #206, #219 ) ;
#63 = AXIS2_PLACEMENT_3D ( 'NONE', #212, #132, #36 ) ;
#64 = DIRECTION ( 'NONE',  ( 0.000000000000000000, 0.000000000000000000, 1.000000000000000000 ) ) ;
#65 = ADVANCED_FACE ( 'NONE', ( #236 ), #23, .F. ) ;
#66 = COORDINATED_UNIVERSAL_TIME_OFFSET ( 1, 0, .AHEAD. ) ;
#67 = PERSON_AND_ORGANIZATION ( #88, #190 ) ;
#68 = CALENDAR_DATE ( 2022, 7, 7 ) ;
#69 = CIRCLE ( 'NONE', #87, 5.000000000000000000 ) ;
#70 = CARTESIAN_POINT ( 'NONE',  ( 0.000000000000000000, 0.000000000000000000, 3.000000000000000000 ) ) ;
#71 = CARTESIAN_POINT ( 'NONE',  ( 2.750000000000000000, 3.367778697655221012E-16, 3.000000000000000000 ) ) ;
#72 = DIRECTION ( 'NONE',  ( 0.000000000000000000, 0.000000000000000000, 1.000000000000000000 ) ) ;
#73 = APPLICATION_CONTEXT ( 'configuration controlled 3d designs of mechanical parts and assemblies' ) ;
#74 = CARTESIAN_POINT ( 'NONE',  ( 0.000000000000000000, 0.000000000000000000, 3.000000000000000000 ) ) ;
#75 = DIRECTION ( 'NONE',  ( -0.000000000000000000, -0.000000000000000000, -1.000000000000000000 ) ) ;
#76 = ORIENTED_EDGE ( 'NONE', *, *, #141, .T. ) ;
#77 = CC_DESIGN_PERSON_AND_ORGANIZATION_ASSIGNMENT ( #199, #143, ( #100 ) ) ;
#78 = CARTESIAN_POINT ( 'NONE',  ( 0.000000000000000000, 0.000000000000000000, 0.000000000000000000 ) ) ;
#79 = ORIENTED_EDGE ( 'NONE', *, *, #246, .T. ) ;
#80 = CARTESIAN_POINT ( 'NONE',  ( -5.000000000000000000, 0.000000000000000000, 0.000000000000000000 ) ) ;
#81 = DESIGN_CONTEXT ( 'detailed design', #73, 'design' ) ;
#82 = ORIENTED_EDGE ( 'NONE', *, *, #126, .T. ) ;
#83 = CC_DESIGN_PERSON_AND_ORGANIZATION_ASSIGNMENT ( #28, #242, ( #183 ) ) ;
#84 = CC_DESIGN_APPROVAL ( #96, ( #43 ) ) ;
#85 = DATE_TIME_ROLE ( 'creation_date' ) ;
#86 = APPROVAL_ROLE ( '' ) ;
#87 = AXIS2_PLACEMENT_3D ( 'NONE', #70, #131, #208 ) ;
#88 = PERSON ( 'NEURÈENÝ', 'NEURÈENÝ', 'NEURÈENÝ', ('NEURÈENÝ'), ('NEURÈENÝ'), ('NEURÈENÝ') ) ;
#89 = CALENDAR_DATE ( 2022, 7, 7 ) ;
#90 = EDGE_LOOP ( 'NONE', ( #217, #76 ) ) ;
#91 = DIRECTION ( 'NONE',  ( 0.000000000000000000, 0.000000000000000000, 1.000000000000000000 ) ) ;
#92 = ADVANCED_FACE ( 'NONE', ( #216, #159 ), #121, .T. ) ;
#93 = CARTESIAN_POINT ( 'NONE',  ( 0.000000000000000000, 0.000000000000000000, 163.0000000000000000 ) ) ;
#94 = CIRCLE ( 'NONE', #240, 5.000000000000000000 ) ;
#95 = PLANE ( 'NONE',  #63 ) ;
#96 = APPROVAL ( #11, 'NEURÈENÝ' ) ;
#97 = ORIENTED_EDGE ( 'NONE', *, *, #5, .T. ) ;
#98 = ORIENTED_EDGE ( 'NONE', *, *, #255, .F. ) ;
#99 = ORIENTED_EDGE ( 'NONE', *, *, #202, .F. ) ;
#100 = PRODUCT ( '219c', '219c', '', ( #29 ) ) ;
#101 = AXIS2_PLACEMENT_3D ( 'NONE', #237, #195, #21 ) ;
#102 = CARTESIAN_POINT ( 'NONE',  ( 5.000000000000000000, 6.123233995736766282E-16, 3.000000000000000000 ) ) ;
#103 = PRODUCT_DEFINITION_FORMATION_WITH_SPECIFIED_SOURCE ( 'LIBOVOLNÝ', '', #100, .NOT_KNOWN. ) ;
#104 = CYLINDRICAL_SURFACE ( 'NONE', #135, 5.000000000000000000 ) ;
#105 = PERSON_AND_ORGANIZATION ( #88, #190 ) ;
#106 = PERSON_AND_ORGANIZATION ( #88, #190 ) ;
#107 = DIRECTION ( 'NONE',  ( 1.000000000000000000, 0.000000000000000000, 0.000000000000000000 ) ) ;
#108 = ADVANCED_FACE ( 'NONE', ( #58 ), #171, .T. ) ;
#109 = DATE_AND_TIME ( #185, #130 ) ;
#110 = AXIS2_PLACEMENT_3D ( 'NONE', #166, #91, #168 ) ;
#111 = APPROVAL_PERSON_ORGANIZATION ( #241, #31, #48 ) ;
#112 = DIRECTION ( 'NONE',  ( 0.000000000000000000, 0.000000000000000000, 1.000000000000000000 ) ) ;
#113 = PRODUCT_RELATED_PRODUCT_CATEGORY ( 'detail', '', ( #100 ) ) ;
#114 = DIRECTION ( 'NONE',  ( -0.000000000000000000, -0.000000000000000000, -1.000000000000000000 ) ) ;
#115 = VERTEX_POINT ( 'NONE', #151 ) ;
#116 = CYLINDRICAL_SURFACE ( 'NONE', #233, 5.000000000000000000 ) ;
#117 = CARTESIAN_POINT ( 'NONE',  ( 0.000000000000000000, 0.000000000000000000, 163.0000000000000000 ) ) ;
#118 = VERTEX_POINT ( 'NONE', #71 ) ;
#119 = DIRECTION ( 'NONE',  ( -0.000000000000000000, -0.000000000000000000, -1.000000000000000000 ) ) ;
#120 = AXIS2_PLACEMENT_3D ( 'NONE', #15, #191, #12 ) ;
#121 = PLANE ( 'NONE',  #101 ) ;
#122 = EDGE_CURVE ( 'NONE', #56, #59, #24, .T. ) ;
#123 = ORIENTED_EDGE ( 'NONE', *, *, #60, .F. ) ;
#124 = ORIENTED_EDGE ( 'NONE', *, *, #126, .F. ) ;
#125 = VECTOR ( 'NONE', #75, 1000.000000000000000 ) ;
#126 = EDGE_CURVE ( 'NONE', #118, #140, #169, .T. ) ;
#127 = APPROVAL_DATE_TIME ( #109, #31 ) ;
#128 = COORDINATED_UNIVERSAL_TIME_OFFSET ( 1, 0, .AHEAD. ) ;
#129 = LINE ( 'NONE', #49, #203 ) ;
#130 = LOCAL_TIME ( 19, 44, 3.000000000000000000, #220 ) ;
#131 = DIRECTION ( 'NONE',  ( 0.000000000000000000, 0.000000000000000000, 1.000000000000000000 ) ) ;
#132 = DIRECTION ( 'NONE',  ( 0.000000000000000000, 0.000000000000000000, 1.000000000000000000 ) ) ;
#133 = DIRECTION ( 'NONE',  ( -1.000000000000000000, 0.000000000000000000, 0.000000000000000000 ) ) ;
#134 = ORIENTED_EDGE ( 'NONE', *, *, #60, .T. ) ;
#135 = AXIS2_PLACEMENT_3D ( 'NONE', #19, #3, #175 ) ;
#136 = APPROVAL ( #167, 'NEURÈENÝ' ) ;
#137 = DIRECTION ( 'NONE',  ( 1.000000000000000000, 0.000000000000000000, -0.000000000000000000 ) ) ;
#138 = AXIS2_PLACEMENT_3D ( 'NONE', #154, #34, #247 ) ;
#139 = ORIENTED_EDGE ( 'NONE', *, *, #141, .F. ) ;
#140 = VERTEX_POINT ( 'NONE', #229 ) ;
#141 = EDGE_CURVE ( 'NONE', #115, #234, #142, .T. ) ;
#142 = CIRCLE ( 'NONE', #201, 2.750000000000000000 ) ;
#143 = PERSON_AND_ORGANIZATION_ROLE ( 'design_owner' ) ;
#144 = CC_DESIGN_SECURITY_CLASSIFICATION ( #183, ( #103 ) ) ;
#145 = CALENDAR_DATE ( 2022, 7, 7 ) ;
#146 = APPROVAL_ROLE ( '' ) ;
#147 = EDGE_CURVE ( 'NONE', #234, #140, #148, .T. ) ;
#148 = LINE ( 'NONE', #252, #32 ) ;
#149 = FACE_OUTER_BOUND ( 'NONE', #214, .T. ) ;
#150 = LOCAL_TIME ( 19, 44, 3.000000000000000000, #165 ) ;
#151 = CARTESIAN_POINT ( 'NONE',  ( 2.750000000000000000, 3.367778697655221012E-16, 163.0000000000000000 ) ) ;
#152 = EDGE_CURVE ( 'NONE', #234, #115, #61, .T. ) ;
#153 = DIRECTION ( 'NONE',  ( 1.000000000000000000, 0.000000000000000000, 0.000000000000000000 ) ) ;
#154 = CARTESIAN_POINT ( 'NONE',  ( 0.000000000000000000, 0.000000000000000000, 3.000000000000000000 ) ) ;
#155 = AXIS2_PLACEMENT_3D ( 'NONE', #13, #226, #210 ) ;
#156 = EDGE_LOOP ( 'NONE', ( #99, #124 ) ) ;
#157 = ADVANCED_FACE ( 'NONE', ( #149 ), #116, .T. ) ;
#158 = CARTESIAN_POINT ( 'NONE',  ( 5.000000000000000000, 6.123233995736766282E-16, 0.000000000000000000 ) ) ;
#159 = FACE_OUTER_BOUND ( 'NONE', #38, .T. ) ;
#160 = ORIENTED_EDGE ( 'NONE', *, *, #196, .F. ) ;
#161 =( NAMED_UNIT ( * ) SI_UNIT ( $, .STERADIAN. ) SOLID_ANGLE_UNIT ( ) );
#162 = SECURITY_CLASSIFICATION_LEVEL ( 'unclassified' ) ;
#163 = COORDINATED_UNIVERSAL_TIME_OFFSET ( 1, 0, .AHEAD. ) ;
#164 = ADVANCED_FACE ( 'NONE', ( #52 ), #95, .T. ) ;
#165 = COORDINATED_UNIVERSAL_TIME_OFFSET ( 1, 0, .AHEAD. ) ;
#166 = CARTESIAN_POINT ( 'NONE',  ( 0.000000000000000000, 0.000000000000000000, 3.000000000000000000 ) ) ;
#167 = APPROVAL_STATUS ( 'not_yet_approved' ) ;
#168 = DIRECTION ( 'NONE',  ( 1.000000000000000000, 0.000000000000000000, 0.000000000000000000 ) ) ;
#169 = CIRCLE ( 'NONE', #110, 2.750000000000000000 ) ;
#170 =( GEOMETRIC_REPRESENTATION_CONTEXT ( 3 ) GLOBAL_UNCERTAINTY_ASSIGNED_CONTEXT ( ( #9 ) ) GLOBAL_UNIT_ASSIGNED_CONTEXT ( ( #184, #204, #161 ) ) REPRESENTATION_CONTEXT ( 'NONE', 'WORKASPACE' ) );
#171 = CYLINDRICAL_SURFACE ( 'NONE', #197, 2.750000000000000000 ) ;
#172 = FACE_OUTER_BOUND ( 'NONE', #173, .T. ) ;
#173 = EDGE_LOOP ( 'NONE', ( #160, #231, #238, #14 ) ) ;
#174 = ORIENTED_EDGE ( 'NONE', *, *, #147, .F. ) ;
#175 = DIRECTION ( 'NONE',  ( -1.000000000000000000, 0.000000000000000000, 0.000000000000000000 ) ) ;
#176 = ORIENTED_EDGE ( 'NONE', *, *, #122, .T. ) ;
#177 = ORIENTED_EDGE ( 'NONE', *, *, #5, .F. ) ;
#178 = CARTESIAN_POINT ( 'NONE',  ( 0.000000000000000000, 0.000000000000000000, 0.000000000000000000 ) ) ;
#179 = PERSON_AND_ORGANIZATION ( #88, #190 ) ;
#180 = CLOSED_SHELL ( 'NONE', ( #108, #157, #37, #92, #65, #228, #164 ) ) ;
#181 = AXIS2_PLACEMENT_3D ( 'NONE', #178, #193, #194 ) ;
#182 = CC_DESIGN_PERSON_AND_ORGANIZATION_ASSIGNMENT ( #106, #8, ( #43 ) ) ;
#183 = SECURITY_CLASSIFICATION ( '', '', #162 ) ;
#184 =( LENGTH_UNIT ( ) NAMED_UNIT ( * ) SI_UNIT ( .MILLI., .METRE. ) );
#185 = CALENDAR_DATE ( 2022, 7, 7 ) ;
#186 = DATE_TIME_ROLE ( 'classification_date' ) ;
#187 = DIRECTION ( 'NONE',  ( 1.000000000000000000, 0.000000000000000000, 0.000000000000000000 ) ) ;
#188 = CARTESIAN_POINT ( 'NONE',  ( 0.000000000000000000, 0.000000000000000000, 163.0000000000000000 ) ) ;
#189 = CYLINDRICAL_SURFACE ( 'NONE', #120, 2.750000000000000000 ) ;
#190 = ORGANIZATION ( 'NEURÈENÝ', 'NEURÈENÝ', '' ) ;
#191 = DIRECTION ( 'NONE',  ( -0.000000000000000000, -0.000000000000000000, -1.000000000000000000 ) ) ;
#192 = ADVANCED_BREP_SHAPE_REPRESENTATION ( '219c', ( #54, #213 ), #170 ) ;
#193 = DIRECTION ( 'NONE',  ( 0.000000000000000000, 0.000000000000000000, 1.000000000000000000 ) ) ;
#194 = DIRECTION ( 'NONE',  ( 1.000000000000000000, 0.000000000000000000, 0.000000000000000000 ) ) ;
#195 = DIRECTION ( 'NONE',  ( 0.000000000000000000, 0.000000000000000000, 1.000000000000000000 ) ) ;
#196 = EDGE_CURVE ( 'NONE', #115, #118, #211, .T. ) ;
#197 = AXIS2_PLACEMENT_3D ( 'NONE', #188, #230, #248 ) ;
#198 = ORIENTED_EDGE ( 'NONE', *, *, #255, .T. ) ;
#199 = PERSON_AND_ORGANIZATION ( #88, #190 ) ;
#200 = PERSON_AND_ORGANIZATION_ROLE ( 'design_supplier' ) ;
#201 = AXIS2_PLACEMENT_3D ( 'NONE', #93, #72, #53 ) ;
#202 = EDGE_CURVE ( 'NONE', #140, #118, #227, .T. ) ;
#203 = VECTOR ( 'NONE', #254, 1000.000000000000000 ) ;
#204 =( NAMED_UNIT ( * ) PLANE_ANGLE_UNIT ( ) SI_UNIT ( $, .RADIAN. ) );
#205 = LOCAL_TIME ( 19, 44, 3.000000000000000000, #163 ) ;
#206 = CALENDAR_DATE ( 2022, 7, 7 ) ;
#207 = AXIS2_PLACEMENT_3D ( 'NONE', #117, #1, #153 ) ;
#208 = DIRECTION ( 'NONE',  ( 1.000000000000000000, 0.000000000000000000, 0.000000000000000000 ) ) ;
#209 = CC_DESIGN_APPROVAL ( #136, ( #183 ) ) ;
#210 = DIRECTION ( 'NONE',  ( 1.000000000000000000, 0.000000000000000000, 0.000000000000000000 ) ) ;
#211 = LINE ( 'NONE', #225, #125 ) ;
#212 = CARTESIAN_POINT ( 'NONE',  ( 0.000000000000000000, 0.000000000000000000, 163.0000000000000000 ) ) ;
#213 = AXIS2_PLACEMENT_3D ( 'NONE', #27, #64, #107 ) ;
#214 = EDGE_LOOP ( 'NONE', ( #98, #97, #176, #42 ) ) ;
#215 = APPROVAL_PERSON_ORGANIZATION ( #67, #136, #146 ) ;
#216 = FACE_BOUND ( 'NONE', #156, .T. ) ;
#217 = ORIENTED_EDGE ( 'NONE', *, *, #152, .T. ) ;
#218 = VERTEX_POINT ( 'NONE', #35 ) ;
#219 = LOCAL_TIME ( 19, 44, 3.000000000000000000, #66 ) ;
#220 = COORDINATED_UNIVERSAL_TIME_OFFSET ( 1, 0, .AHEAD. ) ;
#221 = APPROVAL_STATUS ( 'not_yet_approved' ) ;
#222 = DATE_AND_TIME ( #145, #150 ) ;
#223 = AXIS2_PLACEMENT_3D ( 'NONE', #78, #40, #137 ) ;
#224 = CC_DESIGN_DATE_AND_TIME_ASSIGNMENT ( #222, #186, ( #183 ) ) ;
#225 = CARTESIAN_POINT ( 'NONE',  ( 2.750000000000000000, 3.367778697655221012E-16, 163.0000000000000000 ) ) ;
#226 = DIRECTION ( 'NONE',  ( 0.000000000000000000, 0.000000000000000000, 1.000000000000000000 ) ) ;
#227 = CIRCLE ( 'NONE', #138, 2.750000000000000000 ) ;
#228 = ADVANCED_FACE ( 'NONE', ( #172 ), #189, .T. ) ;
#229 = CARTESIAN_POINT ( 'NONE',  ( -2.750000000000000000, 0.000000000000000000, 3.000000000000000000 ) ) ;
#230 = DIRECTION ( 'NONE',  ( -0.000000000000000000, -0.000000000000000000, -1.000000000000000000 ) ) ;
#231 = ORIENTED_EDGE ( 'NONE', *, *, #152, .F. ) ;
#232 = DIRECTION ( 'NONE',  ( -0.000000000000000000, -0.000000000000000000, -1.000000000000000000 ) ) ;
#233 = AXIS2_PLACEMENT_3D ( 'NONE', #18, #232, #133 ) ;
#234 = VERTEX_POINT ( 'NONE', #51 ) ;
#235 = APPLICATION_CONTEXT ( 'configuration controlled 3d designs of mechanical parts and assemblies' ) ;
#236 = FACE_OUTER_BOUND ( 'NONE', #7, .T. ) ;
#237 = CARTESIAN_POINT ( 'NONE',  ( 0.000000000000000000, 0.000000000000000000, 3.000000000000000000 ) ) ;
#238 = ORIENTED_EDGE ( 'NONE', *, *, #147, .T. ) ;
#239 = APPLICATION_PROTOCOL_DEFINITION ( 'international standard', 'config_control_design', 1994, #73 ) ;
#240 = AXIS2_PLACEMENT_3D ( 'NONE', #74, #112, #187 ) ;
#241 = PERSON_AND_ORGANIZATION ( #88, #190 ) ;
#242 = PERSON_AND_ORGANIZATION_ROLE ( 'classification_officer' ) ;
#243 = APPROVAL_DATE_TIME ( #249, #136 ) ;
#244 = EDGE_CURVE ( 'NONE', #218, #59, #129, .T. ) ;
#245 = APPLICATION_PROTOCOL_DEFINITION ( 'international standard', 'config_control_design', 1994, #235 ) ;
#246 = EDGE_CURVE ( 'NONE', #218, #251, #69, .T. ) ;
#247 = DIRECTION ( 'NONE',  ( 1.000000000000000000, 0.000000000000000000, 0.000000000000000000 ) ) ;
#248 = DIRECTION ( 'NONE',  ( -1.000000000000000000, 0.000000000000000000, 0.000000000000000000 ) ) ;
#249 = DATE_AND_TIME ( #89, #205 ) ;
#250 = CIRCLE ( 'NONE', #181, 5.000000000000000000 ) ;
#251 = VERTEX_POINT ( 'NONE', #33 ) ;
#252 = CARTESIAN_POINT ( 'NONE',  ( -2.750000000000000000, 0.000000000000000000, 163.0000000000000000 ) ) ;
#253 = ORIENTED_EDGE ( 'NONE', *, *, #246, .F. ) ;
#254 = DIRECTION ( 'NONE',  ( -0.000000000000000000, -0.000000000000000000, -1.000000000000000000 ) ) ;
#255 = EDGE_CURVE ( 'NONE', #251, #218, #94, .T. ) ;
ENDSEC;
END-ISO-10303-21;
