ISO-10303-21;
HEADER;
FILE_DESCRIPTION (( 'STEP AP203' ),
    '1' );
FILE_NAME ('0d3f.STEP',
    '2022-07-07T17:44:31',
    ( '' ),
    ( '' ),
    'SwSTEP 2.0',
    'SolidWorks 2019',
    '' );
FILE_SCHEMA (( 'CONFIG_CONTROL_DESIGN' ));
ENDSEC;

DATA;
#1 = AXIS2_PLACEMENT_3D ( 'NONE', #166, #88, #9 ) ;
#2 = PERSON_AND_ORGANIZATION_ROLE ( 'creator' ) ;
#3 = EDGE_CURVE ( 'NONE', #168, #222, #196, .T. ) ;
#4 = DIRECTION ( 'NONE',  ( 1.000000000000000000, 0.000000000000000000, 0.000000000000000000 ) ) ;
#5 = CC_DESIGN_PERSON_AND_ORGANIZATION_ASSIGNMENT ( #8, #109, ( #140 ) ) ;
#6 = PERSON_AND_ORGANIZATION ( #97, #143 ) ;
#7 = ORIENTED_EDGE ( 'NONE', *, *, #16, .F. ) ;
#8 = PERSON_AND_ORGANIZATION ( #97, #143 ) ;
#9 = DIRECTION ( 'NONE',  ( 1.000000000000000000, 0.000000000000000000, 0.000000000000000000 ) ) ;
#10 = APPROVAL_ROLE ( '' ) ;
#11 = APPROVAL_PERSON_ORGANIZATION ( #218, #174, #181 ) ;
#12 = EDGE_LOOP ( 'NONE', ( #146, #64 ) ) ;
#13 = ORIENTED_EDGE ( 'NONE', *, *, #3, .F. ) ;
#14 = APPLICATION_CONTEXT ( 'configuration controlled 3d designs of mechanical parts and assemblies' ) ;
#15 = CC_DESIGN_APPROVAL ( #106, ( #120 ) ) ;
#16 = EDGE_CURVE ( 'NONE', #30, #62, #153, .T. ) ;
#17 = FACE_BOUND ( 'NONE', #148, .T. ) ;
#18 = FACE_OUTER_BOUND ( 'NONE', #111, .T. ) ;
#19 = DIRECTION ( 'NONE',  ( 0.000000000000000000, 0.000000000000000000, 1.000000000000000000 ) ) ;
#20 = CARTESIAN_POINT ( 'NONE',  ( -5.000000000000000000, 0.000000000000000000, 0.000000000000000000 ) ) ;
#21 = EDGE_CURVE ( 'NONE', #30, #168, #172, .T. ) ;
#22 = CC_DESIGN_APPROVAL ( #174, ( #63 ) ) ;
#23 = PERSON_AND_ORGANIZATION ( #97, #143 ) ;
#24 = CALENDAR_DATE ( 2022, 7, 7 ) ;
#25 =( NAMED_UNIT ( * ) SI_UNIT ( $, .STERADIAN. ) SOLID_ANGLE_UNIT ( ) );
#26 = SHAPE_DEFINITION_REPRESENTATION ( #98, #112 ) ;
#27 = CC_DESIGN_PERSON_AND_ORGANIZATION_ASSIGNMENT ( #132, #122, ( #242 ) ) ;
#28 = ORIENTED_EDGE ( 'NONE', *, *, #21, .T. ) ;
#29 = CYLINDRICAL_SURFACE ( 'NONE', #170, 2.750000000000000000 ) ;
#30 = VERTEX_POINT ( 'NONE', #130 ) ;
#31 = EDGE_CURVE ( 'NONE', #236, #240, #100, .T. ) ;
#32 = ORIENTED_EDGE ( 'NONE', *, *, #31, .F. ) ;
#33 = CC_DESIGN_SECURITY_CLASSIFICATION ( #63, ( #120 ) ) ;
#34 = ORIENTED_EDGE ( 'NONE', *, *, #177, .T. ) ;
#35 = DIRECTION ( 'NONE',  ( -1.000000000000000000, 0.000000000000000000, 0.000000000000000000 ) ) ;
#36 = CARTESIAN_POINT ( 'NONE',  ( 0.000000000000000000, 0.000000000000000000, 3.000000000000000000 ) ) ;
#37 = LINE ( 'NONE', #195, #136 ) ;
#38 = DIRECTION ( 'NONE',  ( 0.000000000000000000, 0.000000000000000000, 1.000000000000000000 ) ) ;
#39 = AXIS2_PLACEMENT_3D ( 'NONE', #70, #248, #193 ) ;
#40 = CIRCLE ( 'NONE', #135, 5.000000000000000000 ) ;
#41 = APPROVAL_DATE_TIME ( #121, #174 ) ;
#42 = DIRECTION ( 'NONE',  ( 1.000000000000000000, 0.000000000000000000, 0.000000000000000000 ) ) ;
#43 = CC_DESIGN_DATE_AND_TIME_ASSIGNMENT ( #219, #44, ( #242 ) ) ;
#44 = DATE_TIME_ROLE ( 'creation_date' ) ;
#45 = ORIENTED_EDGE ( 'NONE', *, *, #155, .T. ) ;
#46 = ORIENTED_EDGE ( 'NONE', *, *, #235, .F. ) ;
#47 = ORIENTED_EDGE ( 'NONE', *, *, #71, .F. ) ;
#48 = APPROVAL_STATUS ( 'not_yet_approved' ) ;
#49 = EDGE_LOOP ( 'NONE', ( #203, #34, #220, #204 ) ) ;
#50 = AXIS2_PLACEMENT_3D ( 'NONE', #228, #93, #176 ) ;
#51 = CARTESIAN_POINT ( 'NONE',  ( 0.000000000000000000, 0.000000000000000000, 3.000000000000000000 ) ) ;
#52 = CARTESIAN_POINT ( 'NONE',  ( -2.750000000000000000, 0.000000000000000000, 3.000000000000000000 ) ) ;
#53 = DIRECTION ( 'NONE',  ( 1.000000000000000000, 0.000000000000000000, 0.000000000000000000 ) ) ;
#54 = DIRECTION ( 'NONE',  ( 0.000000000000000000, 0.000000000000000000, 1.000000000000000000 ) ) ;
#55 = CYLINDRICAL_SURFACE ( 'NONE', #246, 5.000000000000000000 ) ;
#56 = PERSON_AND_ORGANIZATION ( #97, #143 ) ;
#57 = MANIFOLD_SOLID_BREP ( 'Pøidat vysunutím3', #238 ) ;
#58 = SECURITY_CLASSIFICATION_LEVEL ( 'unclassified' ) ;
#59 = CARTESIAN_POINT ( 'NONE',  ( 0.000000000000000000, 0.000000000000000000, 103.0000000000000142 ) ) ;
#60 = ORIENTED_EDGE ( 'NONE', *, *, #224, .T. ) ;
#61 = COORDINATED_UNIVERSAL_TIME_OFFSET ( 1, 0, .AHEAD. ) ;
#62 = VERTEX_POINT ( 'NONE', #152 ) ;
#63 = SECURITY_CLASSIFICATION ( '', '', #58 ) ;
#64 = ORIENTED_EDGE ( 'NONE', *, *, #235, .T. ) ;
#65 = PERSON_AND_ORGANIZATION ( #97, #143 ) ;
#66 = DIRECTION ( 'NONE',  ( 0.000000000000000000, 0.000000000000000000, 1.000000000000000000 ) ) ;
#67 = CIRCLE ( 'NONE', #233, 5.000000000000000000 ) ;
#68 = DIRECTION ( 'NONE',  ( 1.000000000000000000, 0.000000000000000000, 0.000000000000000000 ) ) ;
#69 = APPROVAL ( #48, 'NEURÈENÝ' ) ;
#70 = CARTESIAN_POINT ( 'NONE',  ( 0.000000000000000000, 0.000000000000000000, 3.000000000000000000 ) ) ;
#71 = EDGE_CURVE ( 'NONE', #133, #128, #163, .T. ) ;
#72 = AXIS2_PLACEMENT_3D ( 'NONE', #230, #227, #118 ) ;
#73 = DIRECTION ( 'NONE',  ( -0.000000000000000000, -0.000000000000000000, -1.000000000000000000 ) ) ;
#74 = CIRCLE ( 'NONE', #255, 2.750000000000000000 ) ;
#75 = DIRECTION ( 'NONE',  ( 1.000000000000000000, 0.000000000000000000, 0.000000000000000000 ) ) ;
#76 = CARTESIAN_POINT ( 'NONE',  ( 0.000000000000000000, 0.000000000000000000, 103.0000000000000142 ) ) ;
#77 = EDGE_CURVE ( 'NONE', #240, #133, #179, .T. ) ;
#78 = AXIS2_PLACEMENT_3D ( 'NONE', #134, #54, #156 ) ;
#79 = PRODUCT_RELATED_PRODUCT_CATEGORY ( 'detail', '', ( #140 ) ) ;
#80 = EDGE_CURVE ( 'NONE', #62, #30, #40, .T. ) ;
#81 = APPLICATION_PROTOCOL_DEFINITION ( 'international standard', 'config_control_design', 1994, #180 ) ;
#82 = ORIENTED_EDGE ( 'NONE', *, *, #77, .T. ) ;
#83 = APPROVAL_STATUS ( 'not_yet_approved' ) ;
#84 = CARTESIAN_POINT ( 'NONE',  ( -5.000000000000000000, 0.000000000000000000, 3.000000000000000000 ) ) ;
#85 = APPROVAL_DATE_TIME ( #129, #106 ) ;
#86 = CARTESIAN_POINT ( 'NONE',  ( 0.000000000000000000, 0.000000000000000000, 103.0000000000000142 ) ) ;
#87 = ADVANCED_FACE ( 'NONE', ( #18 ), #96, .T. ) ;
#88 = DIRECTION ( 'NONE',  ( 0.000000000000000000, 0.000000000000000000, 1.000000000000000000 ) ) ;
#89 = ORIENTED_EDGE ( 'NONE', *, *, #3, .T. ) ;
#90 = VECTOR ( 'NONE', #178, 1000.000000000000000 ) ;
#91 = LINE ( 'NONE', #253, #190 ) ;
#92 = EDGE_CURVE ( 'NONE', #222, #168, #67, .T. ) ;
#93 = DIRECTION ( 'NONE',  ( 0.000000000000000000, 0.000000000000000000, 1.000000000000000000 ) ) ;
#94 = DESIGN_CONTEXT ( 'detailed design', #14, 'design' ) ;
#95 = DIRECTION ( 'NONE',  ( 1.000000000000000000, 0.000000000000000000, 0.000000000000000000 ) ) ;
#96 = CYLINDRICAL_SURFACE ( 'NONE', #72, 2.750000000000000000 ) ;
#97 = PERSON ( 'NEURÈENÝ', 'NEURÈENÝ', 'NEURÈENÝ', ('NEURÈENÝ'), ('NEURÈENÝ'), ('NEURÈENÝ') ) ;
#98 = PRODUCT_DEFINITION_SHAPE ( 'NONE', 'NONE',  #242 ) ;
#99 = ADVANCED_FACE ( 'NONE', ( #141 ), #231, .T. ) ;
#100 = CIRCLE ( 'NONE', #173, 2.750000000000000000 ) ;
#101 = CC_DESIGN_APPROVAL ( #69, ( #242 ) ) ;
#102 = PERSON_AND_ORGANIZATION_ROLE ( 'classification_officer' ) ;
#103 =( NAMED_UNIT ( * ) PLANE_ANGLE_UNIT ( ) SI_UNIT ( $, .RADIAN. ) );
#104 = DATE_AND_TIME ( #165, #115 ) ;
#105 = EDGE_LOOP ( 'NONE', ( #113, #191 ) ) ;
#106 = APPROVAL ( #83, 'NEURÈENÝ' ) ;
#107 = MECHANICAL_CONTEXT ( 'NONE', #180, 'mechanical' ) ;
#108 = EDGE_LOOP ( 'NONE', ( #189, #32, #60, #45 ) ) ;
#109 = PERSON_AND_ORGANIZATION_ROLE ( 'design_owner' ) ;
#110 = AXIS2_PLACEMENT_3D ( 'NONE', #137, #197, #213 ) ;
#111 = EDGE_LOOP ( 'NONE', ( #46, #82, #207, #131 ) ) ;
#112 = ADVANCED_BREP_SHAPE_REPRESENTATION ( '0d3f', ( #57, #250 ), #126 ) ;
#113 = ORIENTED_EDGE ( 'NONE', *, *, #16, .T. ) ;
#114 = ADVANCED_FACE ( 'NONE', ( #162 ), #175, .F. ) ;
#115 = LOCAL_TIME ( 19, 44, 31.00000000000000000, #61 ) ;
#116 = FACE_OUTER_BOUND ( 'NONE', #49, .T. ) ;
#117 = PLANE ( 'NONE',  #50 ) ;
#118 = DIRECTION ( 'NONE',  ( -1.000000000000000000, 0.000000000000000000, 0.000000000000000000 ) ) ;
#119 = CARTESIAN_POINT ( 'NONE',  ( 2.750000000000000000, 3.367778697655221012E-16, 103.0000000000000142 ) ) ;
#120 = PRODUCT_DEFINITION_FORMATION_WITH_SPECIFIED_SOURCE ( 'LIBOVOLNÝ', '', #140, .NOT_KNOWN. ) ;
#121 = DATE_AND_TIME ( #24, #215 ) ;
#122 = PERSON_AND_ORGANIZATION_ROLE ( 'creator' ) ;
#123 = APPROVAL_STATUS ( 'not_yet_approved' ) ;
#124 = AXIS2_PLACEMENT_3D ( 'NONE', #76, #38, #161 ) ;
#125 = CARTESIAN_POINT ( 'NONE',  ( -2.750000000000000000, 0.000000000000000000, 103.0000000000000142 ) ) ;
#126 =( GEOMETRIC_REPRESENTATION_CONTEXT ( 3 ) GLOBAL_UNCERTAINTY_ASSIGNED_CONTEXT ( ( #154 ) ) GLOBAL_UNIT_ASSIGNED_CONTEXT ( ( #169, #103, #25 ) ) REPRESENTATION_CONTEXT ( 'NONE', 'WORKASPACE' ) );
#127 = CC_DESIGN_DATE_AND_TIME_ASSIGNMENT ( #183, #164, ( #63 ) ) ;
#128 = VERTEX_POINT ( 'NONE', #52 ) ;
#129 = DATE_AND_TIME ( #237, #229 ) ;
#130 = CARTESIAN_POINT ( 'NONE',  ( -5.000000000000000000, 0.000000000000000000, 3.000000000000000000 ) ) ;
#131 = ORIENTED_EDGE ( 'NONE', *, *, #224, .F. ) ;
#132 = PERSON_AND_ORGANIZATION ( #97, #143 ) ;
#133 = VERTEX_POINT ( 'NONE', #139 ) ;
#134 = CARTESIAN_POINT ( 'NONE',  ( 0.000000000000000000, 0.000000000000000000, 0.000000000000000000 ) ) ;
#135 = AXIS2_PLACEMENT_3D ( 'NONE', #36, #194, #75 ) ;
#136 = VECTOR ( 'NONE', #73, 1000.000000000000000 ) ;
#137 = CARTESIAN_POINT ( 'NONE',  ( 0.000000000000000000, 0.000000000000000000, 3.000000000000000000 ) ) ;
#138 = CARTESIAN_POINT ( 'NONE',  ( 0.000000000000000000, 0.000000000000000000, 0.000000000000000000 ) ) ;
#139 = CARTESIAN_POINT ( 'NONE',  ( 2.750000000000000000, 3.367778697655221012E-16, 3.000000000000000000 ) ) ;
#140 = PRODUCT ( '0d3f', '0d3f', '', ( #107 ) ) ;
#141 = FACE_OUTER_BOUND ( 'NONE', #12, .T. ) ;
#142 = APPROVAL_PERSON_ORGANIZATION ( #65, #69, #10 ) ;
#143 = ORGANIZATION ( 'NEURÈENÝ', 'NEURÈENÝ', '' ) ;
#144 = CALENDAR_DATE ( 2022, 7, 7 ) ;
#145 = COORDINATED_UNIVERSAL_TIME_OFFSET ( 1, 0, .AHEAD. ) ;
#146 = ORIENTED_EDGE ( 'NONE', *, *, #31, .T. ) ;
#147 = COORDINATED_UNIVERSAL_TIME_OFFSET ( 1, 0, .AHEAD. ) ;
#148 = EDGE_LOOP ( 'NONE', ( #187, #47 ) ) ;
#149 = DIRECTION ( 'NONE',  ( -0.000000000000000000, -0.000000000000000000, -1.000000000000000000 ) ) ;
#150 = DIRECTION ( 'NONE',  ( 1.000000000000000000, 0.000000000000000000, 0.000000000000000000 ) ) ;
#151 = DIRECTION ( 'NONE',  ( -1.000000000000000000, 0.000000000000000000, 0.000000000000000000 ) ) ;
#152 = CARTESIAN_POINT ( 'NONE',  ( 5.000000000000000000, 6.123233995736766282E-16, 3.000000000000000000 ) ) ;
#153 = CIRCLE ( 'NONE', #158, 5.000000000000000000 ) ;
#154 = UNCERTAINTY_MEASURE_WITH_UNIT (LENGTH_MEASURE( 1.000000000000000082E-05 ), #169, 'distance_accuracy_value', 'NONE');
#155 = EDGE_CURVE ( 'NONE', #128, #133, #254, .T. ) ;
#156 = DIRECTION ( 'NONE',  ( 1.000000000000000000, 0.000000000000000000, -0.000000000000000000 ) ) ;
#157 = FACE_OUTER_BOUND ( 'NONE', #105, .T. ) ;
#158 = AXIS2_PLACEMENT_3D ( 'NONE', #245, #66, #68 ) ;
#159 = CARTESIAN_POINT ( 'NONE',  ( 0.000000000000000000, 0.000000000000000000, 103.0000000000000142 ) ) ;
#160 = CC_DESIGN_PERSON_AND_ORGANIZATION_ASSIGNMENT ( #199, #102, ( #63 ) ) ;
#161 = DIRECTION ( 'NONE',  ( 1.000000000000000000, 0.000000000000000000, -0.000000000000000000 ) ) ;
#162 = FACE_OUTER_BOUND ( 'NONE', #239, .T. ) ;
#163 = CIRCLE ( 'NONE', #244, 2.750000000000000000 ) ;
#164 = DATE_TIME_ROLE ( 'classification_date' ) ;
#165 = CALENDAR_DATE ( 2022, 7, 7 ) ;
#166 = CARTESIAN_POINT ( 'NONE',  ( 0.000000000000000000, 0.000000000000000000, 0.000000000000000000 ) ) ;
#167 = APPROVAL_ROLE ( '' ) ;
#168 = VERTEX_POINT ( 'NONE', #20 ) ;
#169 =( LENGTH_UNIT ( ) NAMED_UNIT ( * ) SI_UNIT ( .MILLI., .METRE. ) );
#170 = AXIS2_PLACEMENT_3D ( 'NONE', #59, #149, #151 ) ;
#171 = DIRECTION ( 'NONE',  ( 0.000000000000000000, 0.000000000000000000, 1.000000000000000000 ) ) ;
#172 = LINE ( 'NONE', #84, #185 ) ;
#173 = AXIS2_PLACEMENT_3D ( 'NONE', #86, #171, #150 ) ;
#174 = APPROVAL ( #123, 'NEURÈENÝ' ) ;
#175 = PLANE ( 'NONE',  #78 ) ;
#176 = DIRECTION ( 'NONE',  ( 1.000000000000000000, 0.000000000000000000, -0.000000000000000000 ) ) ;
#177 = EDGE_CURVE ( 'NONE', #62, #222, #91, .T. ) ;
#178 = DIRECTION ( 'NONE',  ( -0.000000000000000000, -0.000000000000000000, -1.000000000000000000 ) ) ;
#179 = LINE ( 'NONE', #119, #90 ) ;
#180 = APPLICATION_CONTEXT ( 'configuration controlled 3d designs of mechanical parts and assemblies' ) ;
#181 = APPROVAL_ROLE ( '' ) ;
#182 = APPROVAL_PERSON_ORGANIZATION ( #6, #106, #167 ) ;
#183 = DATE_AND_TIME ( #144, #209 ) ;
#184 = ADVANCED_FACE ( 'NONE', ( #212 ), #55, .T. ) ;
#185 = VECTOR ( 'NONE', #243, 1000.000000000000000 ) ;
#186 = CALENDAR_DATE ( 2022, 7, 7 ) ;
#187 = ORIENTED_EDGE ( 'NONE', *, *, #155, .F. ) ;
#188 = APPROVAL_DATE_TIME ( #104, #69 ) ;
#189 = ORIENTED_EDGE ( 'NONE', *, *, #77, .F. ) ;
#190 = VECTOR ( 'NONE', #232, 1000.000000000000000 ) ;
#191 = ORIENTED_EDGE ( 'NONE', *, *, #80, .T. ) ;
#192 = EDGE_LOOP ( 'NONE', ( #226, #7, #28, #89 ) ) ;
#193 = DIRECTION ( 'NONE',  ( -1.000000000000000000, 0.000000000000000000, 0.000000000000000000 ) ) ;
#194 = DIRECTION ( 'NONE',  ( 0.000000000000000000, 0.000000000000000000, 1.000000000000000000 ) ) ;
#195 = CARTESIAN_POINT ( 'NONE',  ( -2.750000000000000000, 0.000000000000000000, 103.0000000000000142 ) ) ;
#196 = CIRCLE ( 'NONE', #1, 5.000000000000000000 ) ;
#197 = DIRECTION ( 'NONE',  ( 0.000000000000000000, 0.000000000000000000, 1.000000000000000000 ) ) ;
#198 = CC_DESIGN_PERSON_AND_ORGANIZATION_ASSIGNMENT ( #56, #2, ( #120 ) ) ;
#199 = PERSON_AND_ORGANIZATION ( #97, #143 ) ;
#200 = LOCAL_TIME ( 19, 44, 31.00000000000000000, #145 ) ;
#201 = DIRECTION ( 'NONE',  ( 0.000000000000000000, 0.000000000000000000, 1.000000000000000000 ) ) ;
#202 = COORDINATED_UNIVERSAL_TIME_OFFSET ( 1, 0, .AHEAD. ) ;
#203 = ORIENTED_EDGE ( 'NONE', *, *, #80, .F. ) ;
#204 = ORIENTED_EDGE ( 'NONE', *, *, #21, .F. ) ;
#205 = ORIENTED_EDGE ( 'NONE', *, *, #92, .F. ) ;
#206 = CARTESIAN_POINT ( 'NONE',  ( 2.750000000000000000, 3.367778697655221012E-16, 103.0000000000000142 ) ) ;
#207 = ORIENTED_EDGE ( 'NONE', *, *, #71, .T. ) ;
#208 = DIRECTION ( 'NONE',  ( -0.000000000000000000, -0.000000000000000000, -1.000000000000000000 ) ) ;
#209 = LOCAL_TIME ( 19, 44, 31.00000000000000000, #234 ) ;
#210 = ADVANCED_FACE ( 'NONE', ( #116 ), #211, .T. ) ;
#211 = CYLINDRICAL_SURFACE ( 'NONE', #39, 5.000000000000000000 ) ;
#212 = FACE_OUTER_BOUND ( 'NONE', #192, .T. ) ;
#213 = DIRECTION ( 'NONE',  ( 1.000000000000000000, 0.000000000000000000, 0.000000000000000000 ) ) ;
#214 = ADVANCED_FACE ( 'NONE', ( #17, #157 ), #117, .T. ) ;
#215 = LOCAL_TIME ( 19, 44, 31.00000000000000000, #202 ) ;
#216 = PERSON_AND_ORGANIZATION_ROLE ( 'design_supplier' ) ;
#217 = CARTESIAN_POINT ( 'NONE',  ( 0.000000000000000000, 0.000000000000000000, 0.000000000000000000 ) ) ;
#218 = PERSON_AND_ORGANIZATION ( #97, #143 ) ;
#219 = DATE_AND_TIME ( #186, #200 ) ;
#220 = ORIENTED_EDGE ( 'NONE', *, *, #92, .T. ) ;
#221 = FACE_OUTER_BOUND ( 'NONE', #108, .T. ) ;
#222 = VERTEX_POINT ( 'NONE', #249 ) ;
#223 = CARTESIAN_POINT ( 'NONE',  ( 0.000000000000000000, 0.000000000000000000, 3.000000000000000000 ) ) ;
#224 = EDGE_CURVE ( 'NONE', #236, #128, #37, .T. ) ;
#225 = APPLICATION_PROTOCOL_DEFINITION ( 'international standard', 'config_control_design', 1994, #14 ) ;
#226 = ORIENTED_EDGE ( 'NONE', *, *, #177, .F. ) ;
#227 = DIRECTION ( 'NONE',  ( -0.000000000000000000, -0.000000000000000000, -1.000000000000000000 ) ) ;
#228 = CARTESIAN_POINT ( 'NONE',  ( 0.000000000000000000, 0.000000000000000000, 3.000000000000000000 ) ) ;
#229 = LOCAL_TIME ( 19, 44, 31.00000000000000000, #147 ) ;
#230 = CARTESIAN_POINT ( 'NONE',  ( 0.000000000000000000, 0.000000000000000000, 103.0000000000000142 ) ) ;
#231 = PLANE ( 'NONE',  #124 ) ;
#232 = DIRECTION ( 'NONE',  ( -0.000000000000000000, -0.000000000000000000, -1.000000000000000000 ) ) ;
#233 = AXIS2_PLACEMENT_3D ( 'NONE', #138, #251, #53 ) ;
#234 = COORDINATED_UNIVERSAL_TIME_OFFSET ( 1, 0, .AHEAD. ) ;
#235 = EDGE_CURVE ( 'NONE', #240, #236, #74, .T. ) ;
#236 = VERTEX_POINT ( 'NONE', #125 ) ;
#237 = CALENDAR_DATE ( 2022, 7, 7 ) ;
#238 = CLOSED_SHELL ( 'NONE', ( #87, #210, #184, #214, #114, #247, #99 ) ) ;
#239 = EDGE_LOOP ( 'NONE', ( #13, #205 ) ) ;
#240 = VERTEX_POINT ( 'NONE', #206 ) ;
#241 = DIRECTION ( 'NONE',  ( 0.000000000000000000, 0.000000000000000000, 1.000000000000000000 ) ) ;
#242 = PRODUCT_DEFINITION ( 'NEZNÁMÝ', '', #120, #94 ) ;
#243 = DIRECTION ( 'NONE',  ( -0.000000000000000000, -0.000000000000000000, -1.000000000000000000 ) ) ;
#244 = AXIS2_PLACEMENT_3D ( 'NONE', #223, #19, #95 ) ;
#245 = CARTESIAN_POINT ( 'NONE',  ( 0.000000000000000000, 0.000000000000000000, 3.000000000000000000 ) ) ;
#246 = AXIS2_PLACEMENT_3D ( 'NONE', #51, #208, #35 ) ;
#247 = ADVANCED_FACE ( 'NONE', ( #221 ), #29, .T. ) ;
#248 = DIRECTION ( 'NONE',  ( -0.000000000000000000, -0.000000000000000000, -1.000000000000000000 ) ) ;
#249 = CARTESIAN_POINT ( 'NONE',  ( 5.000000000000000000, 6.123233995736766282E-16, 0.000000000000000000 ) ) ;
#250 = AXIS2_PLACEMENT_3D ( 'NONE', #217, #241, #42 ) ;
#251 = DIRECTION ( 'NONE',  ( 0.000000000000000000, 0.000000000000000000, 1.000000000000000000 ) ) ;
#252 = CC_DESIGN_PERSON_AND_ORGANIZATION_ASSIGNMENT ( #23, #216, ( #120 ) ) ;
#253 = CARTESIAN_POINT ( 'NONE',  ( 5.000000000000000000, 6.123233995736766282E-16, 3.000000000000000000 ) ) ;
#254 = CIRCLE ( 'NONE', #110, 2.750000000000000000 ) ;
#255 = AXIS2_PLACEMENT_3D ( 'NONE', #159, #201, #4 ) ;
ENDSEC;
END-ISO-10303-21;
