ISO-10303-21;
HEADER;
FILE_DESCRIPTION (( 'STEP AP203' ),
    '1' );
FILE_NAME ('7900.STEP',
    '2022-07-07T17:57:01',
    ( '' ),
    ( '' ),
    'SwSTEP 2.0',
    'SolidWorks 2019',
    '' );
FILE_SCHEMA (( 'CONFIG_CONTROL_DESIGN' ));
ENDSEC;

DATA;
#1 = DIRECTION ( 'NONE',  ( 1.000000000000000000, 0.000000000000000000, 0.000000000000000000 ) ) ;
#2 = PLANE ( 'NONE',  #77 ) ;
#3 = CIRCLE ( 'NONE', #114, 3.000000000000000444 ) ;
#4 = SHAPE_DEFINITION_REPRESENTATION ( #239, #35 ) ;
#5 = CARTESIAN_POINT ( 'NONE',  ( 0.000000000000000000, 0.000000000000000000, 0.000000000000000000 ) ) ;
#6 = CALENDAR_DATE ( 2022, 7, 7 ) ;
#7 = DIRECTION ( 'NONE',  ( -0.000000000000000000, -0.000000000000000000, -1.000000000000000000 ) ) ;
#8 = DIRECTION ( 'NONE',  ( 1.000000000000000000, 0.000000000000000000, 0.000000000000000000 ) ) ;
#9 = COORDINATED_UNIVERSAL_TIME_OFFSET ( 1, 0, .AHEAD. ) ;
#10 = AXIS2_PLACEMENT_3D ( 'NONE', #196, #176, #40 ) ;
#11 = EDGE_LOOP ( 'NONE', ( #111, #164, #193, #185 ) ) ;
#12 = EDGE_CURVE ( 'NONE', #41, #54, #3, .T. ) ;
#13 = AXIS2_PLACEMENT_3D ( 'NONE', #180, #7, #87 ) ;
#14 = DIRECTION ( 'NONE',  ( 1.000000000000000000, 0.000000000000000000, 0.000000000000000000 ) ) ;
#15 = DIRECTION ( 'NONE',  ( 1.000000000000000000, 0.000000000000000000, 0.000000000000000000 ) ) ;
#16 = ORIENTED_EDGE ( 'NONE', *, *, #189, .T. ) ;
#17 = CARTESIAN_POINT ( 'NONE',  ( -3.000000000000000444, 0.000000000000000000, 3.000000000000000000 ) ) ;
#18 = EDGE_CURVE ( 'NONE', #37, #85, #134, .T. ) ;
#19 = DIRECTION ( 'NONE',  ( -0.000000000000000000, -0.000000000000000000, -1.000000000000000000 ) ) ;
#20 = APPROVAL_DATE_TIME ( #106, #64 ) ;
#21 = CIRCLE ( 'NONE', #234, 3.000000000000000444 ) ;
#22 = CALENDAR_DATE ( 2022, 7, 7 ) ;
#23 = FACE_OUTER_BOUND ( 'NONE', #11, .T. ) ;
#24 = APPROVAL_PERSON_ORGANIZATION ( #203, #44, #199 ) ;
#25 = LOCAL_TIME ( 19, 57, 1.000000000000000000, #166 ) ;
#26 = ADVANCED_FACE ( 'NONE', ( #249 ), #132, .F. ) ;
#27 = CARTESIAN_POINT ( 'NONE',  ( -3.000000000000000444, 0.000000000000000000, 0.000000000000000000 ) ) ;
#28 = COORDINATED_UNIVERSAL_TIME_OFFSET ( 1, 0, .AHEAD. ) ;
#29 = CYLINDRICAL_SURFACE ( 'NONE', #46, 1.500000000000000222 ) ;
#30 = AXIS2_PLACEMENT_3D ( 'NONE', #206, #107, #45 ) ;
#31 = CARTESIAN_POINT ( 'NONE',  ( 0.000000000000000000, 0.000000000000000000, 3.000000000000000000 ) ) ;
#32 = ADVANCED_FACE ( 'NONE', ( #94, #65 ), #159, .T. ) ;
#33 = DIRECTION ( 'NONE',  ( 0.000000000000000000, 0.000000000000000000, 1.000000000000000000 ) ) ;
#34 = CARTESIAN_POINT ( 'NONE',  ( 0.000000000000000000, 0.000000000000000000, 3.000000000000000000 ) ) ;
#35 = ADVANCED_BREP_SHAPE_REPRESENTATION ( '7900', ( #62, #117 ), #224 ) ;
#36 = CYLINDRICAL_SURFACE ( 'NONE', #195, 3.000000000000000444 ) ;
#37 = VERTEX_POINT ( 'NONE', #47 ) ;
#38 = LOCAL_TIME ( 19, 57, 1.000000000000000000, #147 ) ;
#39 = ORIENTED_EDGE ( 'NONE', *, *, #231, .T. ) ;
#40 = DIRECTION ( 'NONE',  ( -1.000000000000000000, 0.000000000000000000, 0.000000000000000000 ) ) ;
#41 = VERTEX_POINT ( 'NONE', #209 ) ;
#42 = ORIENTED_EDGE ( 'NONE', *, *, #55, .T. ) ;
#43 = DATE_AND_TIME ( #228, #25 ) ;
#44 = APPROVAL ( #51, 'NEURÈENÝ' ) ;
#45 = DIRECTION ( 'NONE',  ( 1.000000000000000000, 0.000000000000000000, 0.000000000000000000 ) ) ;
#46 = AXIS2_PLACEMENT_3D ( 'NONE', #184, #91, #103 ) ;
#47 = CARTESIAN_POINT ( 'NONE',  ( -1.500000000000000222, 0.000000000000000000, 163.0000000000000000 ) ) ;
#48 = ORIENTED_EDGE ( 'NONE', *, *, #12, .F. ) ;
#49 = PERSON_AND_ORGANIZATION ( #252, #153 ) ;
#50 = DIRECTION ( 'NONE',  ( 0.000000000000000000, 0.000000000000000000, 1.000000000000000000 ) ) ;
#51 = APPROVAL_STATUS ( 'not_yet_approved' ) ;
#52 = DIRECTION ( 'NONE',  ( 1.000000000000000000, 0.000000000000000000, 0.000000000000000000 ) ) ;
#53 = VECTOR ( 'NONE', #70, 1000.000000000000000 ) ;
#54 = VERTEX_POINT ( 'NONE', #27 ) ;
#55 = EDGE_CURVE ( 'NONE', #85, #37, #136, .T. ) ;
#56 = ORIENTED_EDGE ( 'NONE', *, *, #137, .F. ) ;
#57 = DIRECTION ( 'NONE',  ( 1.000000000000000000, 0.000000000000000000, -0.000000000000000000 ) ) ;
#58 = EDGE_CURVE ( 'NONE', #220, #253, #21, .T. ) ;
#59 = LINE ( 'NONE', #172, #232 ) ;
#60 = DIRECTION ( 'NONE',  ( -0.000000000000000000, -0.000000000000000000, -1.000000000000000000 ) ) ;
#61 = EDGE_LOOP ( 'NONE', ( #223, #42 ) ) ;
#62 = MANIFOLD_SOLID_BREP ( 'Pøidat vysunutím3', #126 ) ;
#63 = CALENDAR_DATE ( 2022, 7, 7 ) ;
#64 = APPROVAL ( #127, 'NEURÈENÝ' ) ;
#65 = FACE_OUTER_BOUND ( 'NONE', #75, .T. ) ;
#66 = DATE_AND_TIME ( #124, #237 ) ;
#67 = CARTESIAN_POINT ( 'NONE',  ( 0.000000000000000000, 0.000000000000000000, 163.0000000000000000 ) ) ;
#68 = CIRCLE ( 'NONE', #165, 1.500000000000000222 ) ;
#69 = VERTEX_POINT ( 'NONE', #222 ) ;
#70 = DIRECTION ( 'NONE',  ( -0.000000000000000000, -0.000000000000000000, -1.000000000000000000 ) ) ;
#71 = APPROVAL_ROLE ( '' ) ;
#72 = ORIENTED_EDGE ( 'NONE', *, *, #145, .T. ) ;
#73 = CC_DESIGN_APPROVAL ( #174, ( #212 ) ) ;
#74 = CC_DESIGN_PERSON_AND_ORGANIZATION_ASSIGNMENT ( #163, #82, ( #212 ) ) ;
#75 = EDGE_LOOP ( 'NONE', ( #122, #197 ) ) ;
#76 = DIRECTION ( 'NONE',  ( 0.000000000000000000, 0.000000000000000000, 1.000000000000000000 ) ) ;
#77 = AXIS2_PLACEMENT_3D ( 'NONE', #157, #76, #57 ) ;
#78 = FACE_OUTER_BOUND ( 'NONE', #175, .T. ) ;
#79 = ORIENTED_EDGE ( 'NONE', *, *, #81, .F. ) ;
#80 = MECHANICAL_CONTEXT ( 'NONE', #254, 'mechanical' ) ;
#81 = EDGE_CURVE ( 'NONE', #220, #54, #125, .T. ) ;
#82 = PERSON_AND_ORGANIZATION_ROLE ( 'creator' ) ;
#83 = CIRCLE ( 'NONE', #152, 1.500000000000000222 ) ;
#84 = VERTEX_POINT ( 'NONE', #110 ) ;
#85 = VERTEX_POINT ( 'NONE', #89 ) ;
#86 = PERSON_AND_ORGANIZATION ( #252, #153 ) ;
#87 = DIRECTION ( 'NONE',  ( -1.000000000000000000, 0.000000000000000000, 0.000000000000000000 ) ) ;
#88 = APPROVAL_DATE_TIME ( #150, #174 ) ;
#89 = CARTESIAN_POINT ( 'NONE',  ( 1.500000000000000222, 1.836970198721030181E-16, 163.0000000000000000 ) ) ;
#90 = PERSON_AND_ORGANIZATION ( #252, #153 ) ;
#91 = DIRECTION ( 'NONE',  ( -0.000000000000000000, -0.000000000000000000, -1.000000000000000000 ) ) ;
#92 = APPROVAL_PERSON_ORGANIZATION ( #112, #64, #183 ) ;
#93 = ORIENTED_EDGE ( 'NONE', *, *, #231, .F. ) ;
#94 = FACE_BOUND ( 'NONE', #216, .T. ) ;
#95 = CC_DESIGN_PERSON_AND_ORGANIZATION_ASSIGNMENT ( #86, #225, ( #247 ) ) ;
#96 = PRODUCT_DEFINITION_FORMATION_WITH_SPECIFIED_SOURCE ( 'LIBOVOLNÝ', '', #200, .NOT_KNOWN. ) ;
#97 = EDGE_LOOP ( 'NONE', ( #182, #39, #72, #56 ) ) ;
#98 = CIRCLE ( 'NONE', #190, 3.000000000000000444 ) ;
#99 = DIRECTION ( 'NONE',  ( 1.000000000000000000, 0.000000000000000000, 0.000000000000000000 ) ) ;
#100 =( NAMED_UNIT ( * ) PLANE_ANGLE_UNIT ( ) SI_UNIT ( $, .RADIAN. ) );
#101 = PRODUCT_RELATED_PRODUCT_CATEGORY ( 'detail', '', ( #200 ) ) ;
#102 = AXIS2_PLACEMENT_3D ( 'NONE', #67, #115, #52 ) ;
#103 = DIRECTION ( 'NONE',  ( -1.000000000000000000, 0.000000000000000000, 0.000000000000000000 ) ) ;
#104 = ORIENTED_EDGE ( 'NONE', *, *, #18, .F. ) ;
#105 = DIRECTION ( 'NONE',  ( -0.000000000000000000, -0.000000000000000000, -1.000000000000000000 ) ) ;
#106 = DATE_AND_TIME ( #6, #213 ) ;
#107 = DIRECTION ( 'NONE',  ( 0.000000000000000000, 0.000000000000000000, 1.000000000000000000 ) ) ;
#108 = CC_DESIGN_APPROVAL ( #64, ( #96 ) ) ;
#109 = CYLINDRICAL_SURFACE ( 'NONE', #13, 3.000000000000000444 ) ;
#110 = CARTESIAN_POINT ( 'NONE',  ( 1.500000000000000222, 1.836970198721030181E-16, 3.000000000000000000 ) ) ;
#111 = ORIENTED_EDGE ( 'NONE', *, *, #189, .F. ) ;
#112 = PERSON_AND_ORGANIZATION ( #252, #153 ) ;
#113 = DIRECTION ( 'NONE',  ( 1.000000000000000000, 0.000000000000000000, 0.000000000000000000 ) ) ;
#114 = AXIS2_PLACEMENT_3D ( 'NONE', #5, #151, #8 ) ;
#115 = DIRECTION ( 'NONE',  ( 0.000000000000000000, 0.000000000000000000, 1.000000000000000000 ) ) ;
#116 = ADVANCED_FACE ( 'NONE', ( #23 ), #109, .T. ) ;
#117 = AXIS2_PLACEMENT_3D ( 'NONE', #173, #217, #14 ) ;
#118 = DIRECTION ( 'NONE',  ( -1.000000000000000000, 0.000000000000000000, 0.000000000000000000 ) ) ;
#119 = DIRECTION ( 'NONE',  ( 0.000000000000000000, 0.000000000000000000, 1.000000000000000000 ) ) ;
#120 = CARTESIAN_POINT ( 'NONE',  ( 3.000000000000000444, 3.673940397442060361E-16, 3.000000000000000000 ) ) ;
#121 = APPLICATION_PROTOCOL_DEFINITION ( 'international standard', 'config_control_design', 1994, #254 ) ;
#122 = ORIENTED_EDGE ( 'NONE', *, *, #58, .T. ) ;
#123 = PERSON_AND_ORGANIZATION_ROLE ( 'design_supplier' ) ;
#124 = CALENDAR_DATE ( 2022, 7, 7 ) ;
#125 = LINE ( 'NONE', #202, #210 ) ;
#126 = CLOSED_SHELL ( 'NONE', ( #227, #161, #116, #32, #26, #156, #236 ) ) ;
#127 = APPROVAL_STATUS ( 'not_yet_approved' ) ;
#128 = DIRECTION ( 'NONE',  ( -0.000000000000000000, -0.000000000000000000, -1.000000000000000000 ) ) ;
#129 = PERSON_AND_ORGANIZATION_ROLE ( 'creator' ) ;
#130 = FACE_OUTER_BOUND ( 'NONE', #133, .T. ) ;
#131 = DATE_AND_TIME ( #22, #214 ) ;
#132 = PLANE ( 'NONE',  #140 ) ;
#133 = EDGE_LOOP ( 'NONE', ( #93, #104, #250, #255 ) ) ;
#134 = CIRCLE ( 'NONE', #102, 1.500000000000000222 ) ;
#135 = CC_DESIGN_DATE_AND_TIME_ASSIGNMENT ( #131, #243, ( #212 ) ) ;
#136 = CIRCLE ( 'NONE', #30, 1.500000000000000222 ) ;
#137 = EDGE_CURVE ( 'NONE', #37, #69, #246, .T. ) ;
#138 = CIRCLE ( 'NONE', #211, 3.000000000000000444 ) ;
#139 =( LENGTH_UNIT ( ) NAMED_UNIT ( * ) SI_UNIT ( .MILLI., .METRE. ) );
#140 = AXIS2_PLACEMENT_3D ( 'NONE', #178, #186, #181 ) ;
#141 = CC_DESIGN_PERSON_AND_ORGANIZATION_ASSIGNMENT ( #90, #129, ( #96 ) ) ;
#142 = ORIENTED_EDGE ( 'NONE', *, *, #208, .F. ) ;
#143 = APPLICATION_PROTOCOL_DEFINITION ( 'international standard', 'config_control_design', 1994, #160 ) ;
#144 = DIRECTION ( 'NONE',  ( 1.000000000000000000, 0.000000000000000000, 0.000000000000000000 ) ) ;
#145 = EDGE_CURVE ( 'NONE', #84, #69, #68, .T. ) ;
#146 = DIRECTION ( 'NONE',  ( 0.000000000000000000, 0.000000000000000000, 1.000000000000000000 ) ) ;
#147 = COORDINATED_UNIVERSAL_TIME_OFFSET ( 1, 0, .AHEAD. ) ;
#148 = CC_DESIGN_SECURITY_CLASSIFICATION ( #247, ( #96 ) ) ;
#149 = CARTESIAN_POINT ( 'NONE',  ( -1.500000000000000222, 0.000000000000000000, 163.0000000000000000 ) ) ;
#150 = DATE_AND_TIME ( #63, #38 ) ;
#151 = DIRECTION ( 'NONE',  ( 0.000000000000000000, 0.000000000000000000, 1.000000000000000000 ) ) ;
#152 = AXIS2_PLACEMENT_3D ( 'NONE', #238, #119, #15 ) ;
#153 = ORGANIZATION ( 'NEURÈENÝ', 'NEURÈENÝ', '' ) ;
#154 = CARTESIAN_POINT ( 'NONE',  ( 0.000000000000000000, 0.000000000000000000, 3.000000000000000000 ) ) ;
#155 = CARTESIAN_POINT ( 'NONE',  ( 3.000000000000000444, 3.673940397442060361E-16, 3.000000000000000000 ) ) ;
#156 = ADVANCED_FACE ( 'NONE', ( #130 ), #29, .T. ) ;
#157 = CARTESIAN_POINT ( 'NONE',  ( 0.000000000000000000, 0.000000000000000000, 163.0000000000000000 ) ) ;
#158 = VECTOR ( 'NONE', #105, 1000.000000000000000 ) ;
#159 = PLANE ( 'NONE',  #201 ) ;
#160 = APPLICATION_CONTEXT ( 'configuration controlled 3d designs of mechanical parts and assemblies' ) ;
#161 = ADVANCED_FACE ( 'NONE', ( #78 ), #36, .T. ) ;
#162 = ORIENTED_EDGE ( 'NONE', *, *, #145, .F. ) ;
#163 = PERSON_AND_ORGANIZATION ( #252, #153 ) ;
#164 = ORIENTED_EDGE ( 'NONE', *, *, #58, .F. ) ;
#165 = AXIS2_PLACEMENT_3D ( 'NONE', #226, #50, #113 ) ;
#166 = COORDINATED_UNIVERSAL_TIME_OFFSET ( 1, 0, .AHEAD. ) ;
#167 = ORIENTED_EDGE ( 'NONE', *, *, #240, .F. ) ;
#168 = CC_DESIGN_APPROVAL ( #44, ( #247 ) ) ;
#169 = ORIENTED_EDGE ( 'NONE', *, *, #12, .T. ) ;
#170 = UNCERTAINTY_MEASURE_WITH_UNIT (LENGTH_MEASURE( 1.000000000000000082E-05 ), #139, 'distance_accuracy_value', 'NONE');
#171 =( NAMED_UNIT ( * ) SI_UNIT ( $, .STERADIAN. ) SOLID_ANGLE_UNIT ( ) );
#172 = CARTESIAN_POINT ( 'NONE',  ( 1.500000000000000222, 1.836970198721030181E-16, 163.0000000000000000 ) ) ;
#173 = CARTESIAN_POINT ( 'NONE',  ( 0.000000000000000000, 0.000000000000000000, 0.000000000000000000 ) ) ;
#174 = APPROVAL ( #207, 'NEURÈENÝ' ) ;
#175 = EDGE_LOOP ( 'NONE', ( #142, #16, #169, #79 ) ) ;
#176 = DIRECTION ( 'NONE',  ( -0.000000000000000000, -0.000000000000000000, -1.000000000000000000 ) ) ;
#177 = PERSON_AND_ORGANIZATION ( #252, #153 ) ;
#178 = CARTESIAN_POINT ( 'NONE',  ( 0.000000000000000000, 0.000000000000000000, 0.000000000000000000 ) ) ;
#179 = SECURITY_CLASSIFICATION_LEVEL ( 'unclassified' ) ;
#180 = CARTESIAN_POINT ( 'NONE',  ( 0.000000000000000000, 0.000000000000000000, 3.000000000000000000 ) ) ;
#181 = DIRECTION ( 'NONE',  ( 1.000000000000000000, 0.000000000000000000, -0.000000000000000000 ) ) ;
#182 = ORIENTED_EDGE ( 'NONE', *, *, #55, .F. ) ;
#183 = APPROVAL_ROLE ( '' ) ;
#184 = CARTESIAN_POINT ( 'NONE',  ( 0.000000000000000000, 0.000000000000000000, 163.0000000000000000 ) ) ;
#185 = ORIENTED_EDGE ( 'NONE', *, *, #240, .T. ) ;
#186 = DIRECTION ( 'NONE',  ( 0.000000000000000000, 0.000000000000000000, 1.000000000000000000 ) ) ;
#187 = DESIGN_CONTEXT ( 'detailed design', #160, 'design' ) ;
#188 = CC_DESIGN_DATE_AND_TIME_ASSIGNMENT ( #43, #221, ( #247 ) ) ;
#189 = EDGE_CURVE ( 'NONE', #253, #41, #198, .T. ) ;
#190 = AXIS2_PLACEMENT_3D ( 'NONE', #215, #191, #1 ) ;
#191 = DIRECTION ( 'NONE',  ( 0.000000000000000000, 0.000000000000000000, 1.000000000000000000 ) ) ;
#192 = CYLINDRICAL_SURFACE ( 'NONE', #10, 1.500000000000000222 ) ;
#193 = ORIENTED_EDGE ( 'NONE', *, *, #81, .T. ) ;
#194 = CC_DESIGN_PERSON_AND_ORGANIZATION_ASSIGNMENT ( #49, #248, ( #200 ) ) ;
#195 = AXIS2_PLACEMENT_3D ( 'NONE', #34, #60, #118 ) ;
#196 = CARTESIAN_POINT ( 'NONE',  ( 0.000000000000000000, 0.000000000000000000, 163.0000000000000000 ) ) ;
#197 = ORIENTED_EDGE ( 'NONE', *, *, #208, .T. ) ;
#198 = LINE ( 'NONE', #120, #158 ) ;
#199 = APPROVAL_ROLE ( '' ) ;
#200 = PRODUCT ( '7900', '7900', '', ( #80 ) ) ;
#201 = AXIS2_PLACEMENT_3D ( 'NONE', #229, #242, #244 ) ;
#202 = CARTESIAN_POINT ( 'NONE',  ( -3.000000000000000444, 0.000000000000000000, 3.000000000000000000 ) ) ;
#203 = PERSON_AND_ORGANIZATION ( #252, #153 ) ;
#204 = ORIENTED_EDGE ( 'NONE', *, *, #251, .F. ) ;
#205 = PERSON_AND_ORGANIZATION ( #252, #153 ) ;
#206 = CARTESIAN_POINT ( 'NONE',  ( 0.000000000000000000, 0.000000000000000000, 163.0000000000000000 ) ) ;
#207 = APPROVAL_STATUS ( 'not_yet_approved' ) ;
#208 = EDGE_CURVE ( 'NONE', #253, #220, #138, .T. ) ;
#209 = CARTESIAN_POINT ( 'NONE',  ( 3.000000000000000444, 3.673940397442060361E-16, 0.000000000000000000 ) ) ;
#210 = VECTOR ( 'NONE', #128, 1000.000000000000000 ) ;
#211 = AXIS2_PLACEMENT_3D ( 'NONE', #154, #33, #99 ) ;
#212 = PRODUCT_DEFINITION ( 'NEZNÁMÝ', '', #96, #187 ) ;
#213 = LOCAL_TIME ( 19, 57, 1.000000000000000000, #9 ) ;
#214 = LOCAL_TIME ( 19, 57, 1.000000000000000000, #28 ) ;
#215 = CARTESIAN_POINT ( 'NONE',  ( 0.000000000000000000, 0.000000000000000000, 0.000000000000000000 ) ) ;
#216 = EDGE_LOOP ( 'NONE', ( #204, #162 ) ) ;
#217 = DIRECTION ( 'NONE',  ( 0.000000000000000000, 0.000000000000000000, 1.000000000000000000 ) ) ;
#218 = EDGE_LOOP ( 'NONE', ( #167, #48 ) ) ;
#219 = COORDINATED_UNIVERSAL_TIME_OFFSET ( 1, 0, .AHEAD. ) ;
#220 = VERTEX_POINT ( 'NONE', #17 ) ;
#221 = DATE_TIME_ROLE ( 'classification_date' ) ;
#222 = CARTESIAN_POINT ( 'NONE',  ( -1.500000000000000222, 0.000000000000000000, 3.000000000000000000 ) ) ;
#223 = ORIENTED_EDGE ( 'NONE', *, *, #18, .T. ) ;
#224 =( GEOMETRIC_REPRESENTATION_CONTEXT ( 3 ) GLOBAL_UNCERTAINTY_ASSIGNED_CONTEXT ( ( #170 ) ) GLOBAL_UNIT_ASSIGNED_CONTEXT ( ( #139, #100, #171 ) ) REPRESENTATION_CONTEXT ( 'NONE', 'WORKASPACE' ) );
#225 = PERSON_AND_ORGANIZATION_ROLE ( 'classification_officer' ) ;
#226 = CARTESIAN_POINT ( 'NONE',  ( 0.000000000000000000, 0.000000000000000000, 3.000000000000000000 ) ) ;
#227 = ADVANCED_FACE ( 'NONE', ( #241 ), #192, .T. ) ;
#228 = CALENDAR_DATE ( 2022, 7, 7 ) ;
#229 = CARTESIAN_POINT ( 'NONE',  ( 0.000000000000000000, 0.000000000000000000, 3.000000000000000000 ) ) ;
#230 = APPROVAL_PERSON_ORGANIZATION ( #205, #174, #71 ) ;
#231 = EDGE_CURVE ( 'NONE', #85, #84, #59, .T. ) ;
#232 = VECTOR ( 'NONE', #19, 1000.000000000000000 ) ;
#233 = CC_DESIGN_PERSON_AND_ORGANIZATION_ASSIGNMENT ( #177, #123, ( #96 ) ) ;
#234 = AXIS2_PLACEMENT_3D ( 'NONE', #31, #146, #144 ) ;
#235 = FACE_OUTER_BOUND ( 'NONE', #61, .T. ) ;
#236 = ADVANCED_FACE ( 'NONE', ( #235 ), #2, .T. ) ;
#237 = LOCAL_TIME ( 19, 57, 1.000000000000000000, #219 ) ;
#238 = CARTESIAN_POINT ( 'NONE',  ( 0.000000000000000000, 0.000000000000000000, 3.000000000000000000 ) ) ;
#239 = PRODUCT_DEFINITION_SHAPE ( 'NONE', 'NONE',  #212 ) ;
#240 = EDGE_CURVE ( 'NONE', #54, #41, #98, .T. ) ;
#241 = FACE_OUTER_BOUND ( 'NONE', #97, .T. ) ;
#242 = DIRECTION ( 'NONE',  ( 0.000000000000000000, 0.000000000000000000, 1.000000000000000000 ) ) ;
#243 = DATE_TIME_ROLE ( 'creation_date' ) ;
#244 = DIRECTION ( 'NONE',  ( 1.000000000000000000, 0.000000000000000000, -0.000000000000000000 ) ) ;
#245 = APPROVAL_DATE_TIME ( #66, #44 ) ;
#246 = LINE ( 'NONE', #149, #53 ) ;
#247 = SECURITY_CLASSIFICATION ( '', '', #179 ) ;
#248 = PERSON_AND_ORGANIZATION_ROLE ( 'design_owner' ) ;
#249 = FACE_OUTER_BOUND ( 'NONE', #218, .T. ) ;
#250 = ORIENTED_EDGE ( 'NONE', *, *, #137, .T. ) ;
#251 = EDGE_CURVE ( 'NONE', #69, #84, #83, .T. ) ;
#252 = PERSON ( 'NEURÈENÝ', 'NEURÈENÝ', 'NEURÈENÝ', ('NEURÈENÝ'), ('NEURÈENÝ'), ('NEURÈENÝ') ) ;
#253 = VERTEX_POINT ( 'NONE', #155 ) ;
#254 = APPLICATION_CONTEXT ( 'configuration controlled 3d designs of mechanical parts and assemblies' ) ;
#255 = ORIENTED_EDGE ( 'NONE', *, *, #251, .T. ) ;
ENDSEC;
END-ISO-10303-21;
