ISO-10303-21;
HEADER;
FILE_DESCRIPTION (( 'STEP AP203' ),
    '1' );
FILE_NAME ('079c.STEP',
    '2023-02-13T14:51:57',
    ( '' ),
    ( '' ),
    'SwSTEP 2.0',
    'SolidWorks 2019',
    '' );
FILE_SCHEMA (( 'CONFIG_CONTROL_DESIGN' ));
ENDSEC;

DATA;
#1 = CARTESIAN_POINT ( 'NONE',  ( -3.500000000000000000, 0.000000000000000000, 125.0000000000000000 ) ) ;
#2 = DIRECTION ( 'NONE',  ( -0.000000000000000000, -0.000000000000000000, -1.000000000000000000 ) ) ;
#3 = DIRECTION ( 'NONE',  ( 1.000000000000000000, 0.000000000000000000, 0.000000000000000000 ) ) ;
#4 = DIRECTION ( 'NONE',  ( 0.000000000000000000, 0.000000000000000000, 1.000000000000000000 ) ) ;
#5 = LOCAL_TIME ( 15, 51, 57.00000000000000000, #130 ) ;
#6 = APPLICATION_CONTEXT ( 'configuration controlled 3d designs of mechanical parts and assemblies' ) ;
#7 = APPROVAL ( #8, 'NEURÈENÝ' ) ;
#8 = APPROVAL_STATUS ( 'not_yet_approved' ) ;
#9 = FACE_OUTER_BOUND ( 'NONE', #244, .T. ) ;
#10 = CALENDAR_DATE ( 2023, 13, 2 ) ;
#11 = SECURITY_CLASSIFICATION_LEVEL ( 'unclassified' ) ;
#12 = APPROVAL_STATUS ( 'not_yet_approved' ) ;
#13 = CALENDAR_DATE ( 2023, 13, 2 ) ;
#14 = ADVANCED_FACE ( 'NONE', ( #9 ), #94, .T. ) ;
#15 = EDGE_LOOP ( 'NONE', ( #177, #192 ) ) ;
#16 = AXIS2_PLACEMENT_3D ( 'NONE', #200, #42, #46 ) ;
#17 = ORIENTED_EDGE ( 'NONE', *, *, #184, .F. ) ;
#18 = EDGE_CURVE ( 'NONE', #121, #138, #53, .T. ) ;
#19 = DIRECTION ( 'NONE',  ( 0.000000000000000000, 0.000000000000000000, 1.000000000000000000 ) ) ;
#20 = CARTESIAN_POINT ( 'NONE',  ( 0.000000000000000000, 0.000000000000000000, 0.000000000000000000 ) ) ;
#21 = DIRECTION ( 'NONE',  ( 1.000000000000000000, 0.000000000000000000, 0.000000000000000000 ) ) ;
#22 = CIRCLE ( 'NONE', #215, 3.500000000000000000 ) ;
#23 = ADVANCED_FACE ( 'NONE', ( #214 ), #105, .T. ) ;
#24 = DIRECTION ( 'NONE',  ( 1.000000000000000000, 0.000000000000000000, 0.000000000000000000 ) ) ;
#25 = CARTESIAN_POINT ( 'NONE',  ( 0.000000000000000000, 0.000000000000000000, 5.000000000000000000 ) ) ;
#26 = CC_DESIGN_APPROVAL ( #146, ( #163 ) ) ;
#27 = CARTESIAN_POINT ( 'NONE',  ( -3.500000000000000000, 0.000000000000000000, 5.000000000000000000 ) ) ;
#28 = VERTEX_POINT ( 'NONE', #217 ) ;
#29 = ADVANCED_FACE ( 'NONE', ( #100, #232 ), #127, .T. ) ;
#30 = APPROVAL_ROLE ( '' ) ;
#31 = ORIENTED_EDGE ( 'NONE', *, *, #85, .F. ) ;
#32 = CARTESIAN_POINT ( 'NONE',  ( 0.000000000000000000, 0.000000000000000000, 5.000000000000000000 ) ) ;
#33 = APPROVAL_DATE_TIME ( #205, #7 ) ;
#34 = ORIENTED_EDGE ( 'NONE', *, *, #240, .T. ) ;
#35 = DIRECTION ( 'NONE',  ( 0.000000000000000000, 0.000000000000000000, 1.000000000000000000 ) ) ;
#36 = AXIS2_PLACEMENT_3D ( 'NONE', #62, #40, #21 ) ;
#37 = CC_DESIGN_PERSON_AND_ORGANIZATION_ASSIGNMENT ( #251, #56, ( #220 ) ) ;
#38 = ORIENTED_EDGE ( 'NONE', *, *, #49, .F. ) ;
#39 = CC_DESIGN_PERSON_AND_ORGANIZATION_ASSIGNMENT ( #188, #249, ( #210 ) ) ;
#40 = DIRECTION ( 'NONE',  ( 0.000000000000000000, 0.000000000000000000, 1.000000000000000000 ) ) ;
#41 = PERSON_AND_ORGANIZATION ( #133, #104 ) ;
#42 = DIRECTION ( 'NONE',  ( -0.000000000000000000, -0.000000000000000000, -1.000000000000000000 ) ) ;
#43 = DIRECTION ( 'NONE',  ( 0.000000000000000000, 0.000000000000000000, 1.000000000000000000 ) ) ;
#44 = CARTESIAN_POINT ( 'NONE',  ( 6.000000000000000888, 7.347880794884120722E-16, 0.000000000000000000 ) ) ;
#45 = CC_DESIGN_APPROVAL ( #253, ( #210 ) ) ;
#46 = DIRECTION ( 'NONE',  ( -1.000000000000000000, 0.000000000000000000, 0.000000000000000000 ) ) ;
#47 = APPROVAL_ROLE ( '' ) ;
#48 = APPROVAL_DATE_TIME ( #207, #253 ) ;
#49 = EDGE_CURVE ( 'NONE', #121, #203, #254, .T. ) ;
#50 = PERSON_AND_ORGANIZATION ( #133, #104 ) ;
#51 = DIRECTION ( 'NONE',  ( -0.000000000000000000, -0.000000000000000000, -1.000000000000000000 ) ) ;
#52 = COORDINATED_UNIVERSAL_TIME_OFFSET ( 1, 0, .AHEAD. ) ;
#53 = CIRCLE ( 'NONE', #36, 3.500000000000000000 ) ;
#54 = PERSON_AND_ORGANIZATION_ROLE ( 'creator' ) ;
#55 = CARTESIAN_POINT ( 'NONE',  ( 0.000000000000000000, 0.000000000000000000, 0.000000000000000000 ) ) ;
#56 = PERSON_AND_ORGANIZATION_ROLE ( 'classification_officer' ) ;
#57 = CALENDAR_DATE ( 2023, 13, 2 ) ;
#58 = EDGE_LOOP ( 'NONE', ( #98, #118, #73, #86 ) ) ;
#59 = EDGE_CURVE ( 'NONE', #186, #203, #69, .T. ) ;
#60 = DIRECTION ( 'NONE',  ( -0.000000000000000000, -0.000000000000000000, -1.000000000000000000 ) ) ;
#61 = CLOSED_SHELL ( 'NONE', ( #14, #231, #140, #29, #88, #255, #23 ) ) ;
#62 = CARTESIAN_POINT ( 'NONE',  ( 0.000000000000000000, 0.000000000000000000, 125.0000000000000000 ) ) ;
#63 = LINE ( 'NONE', #107, #198 ) ;
#64 = AXIS2_PLACEMENT_3D ( 'NONE', #183, #131, #172 ) ;
#65 = CYLINDRICAL_SURFACE ( 'NONE', #202, 3.500000000000000000 ) ;
#66 = CC_DESIGN_DATE_AND_TIME_ASSIGNMENT ( #190, #189, ( #163 ) ) ;
#67 = CARTESIAN_POINT ( 'NONE',  ( 0.000000000000000000, 0.000000000000000000, 0.000000000000000000 ) ) ;
#68 = MECHANICAL_CONTEXT ( 'NONE', #6, 'mechanical' ) ;
#69 = CIRCLE ( 'NONE', #166, 3.500000000000000000 ) ;
#70 = VERTEX_POINT ( 'NONE', #181 ) ;
#71 = LOCAL_TIME ( 15, 51, 57.00000000000000000, #209 ) ;
#72 = FACE_OUTER_BOUND ( 'NONE', #58, .T. ) ;
#73 = ORIENTED_EDGE ( 'NONE', *, *, #119, .T. ) ;
#74 = ADVANCED_BREP_SHAPE_REPRESENTATION ( '079c', ( #79, #193 ), #96 ) ;
#75 = ORIENTED_EDGE ( 'NONE', *, *, #106, .T. ) ;
#76 = ORIENTED_EDGE ( 'NONE', *, *, #119, .F. ) ;
#77 = VECTOR ( 'NONE', #129, 1000.000000000000000 ) ;
#78 = APPLICATION_CONTEXT ( 'configuration controlled 3d designs of mechanical parts and assemblies' ) ;
#79 = MANIFOLD_SOLID_BREP ( 'Pøidat vysunutím3', #61 ) ;
#80 = COORDINATED_UNIVERSAL_TIME_OFFSET ( 1, 0, .AHEAD. ) ;
#81 = EDGE_LOOP ( 'NONE', ( #17, #122 ) ) ;
#82 = AXIS2_PLACEMENT_3D ( 'NONE', #25, #4, #201 ) ;
#83 = DIRECTION ( 'NONE',  ( -0.000000000000000000, -0.000000000000000000, -1.000000000000000000 ) ) ;
#84 = CARTESIAN_POINT ( 'NONE',  ( 0.000000000000000000, 0.000000000000000000, 5.000000000000000000 ) ) ;
#85 = EDGE_CURVE ( 'NONE', #138, #121, #22, .T. ) ;
#86 = ORIENTED_EDGE ( 'NONE', *, *, #106, .F. ) ;
#87 = CARTESIAN_POINT ( 'NONE',  ( 0.000000000000000000, 0.000000000000000000, 125.0000000000000000 ) ) ;
#88 = ADVANCED_FACE ( 'NONE', ( #195 ), #165, .F. ) ;
#89 = CIRCLE ( 'NONE', #64, 6.000000000000000888 ) ;
#90 = CARTESIAN_POINT ( 'NONE',  ( -6.000000000000000888, 0.000000000000000000, 0.000000000000000000 ) ) ;
#91 =( NAMED_UNIT ( * ) SI_UNIT ( $, .STERADIAN. ) SOLID_ANGLE_UNIT ( ) );
#92 = AXIS2_PLACEMENT_3D ( 'NONE', #139, #43, #194 ) ;
#93 = ORIENTED_EDGE ( 'NONE', *, *, #154, .F. ) ;
#94 = CYLINDRICAL_SURFACE ( 'NONE', #16, 3.500000000000000000 ) ;
#95 = CC_DESIGN_DATE_AND_TIME_ASSIGNMENT ( #176, #152, ( #220 ) ) ;
#96 =( GEOMETRIC_REPRESENTATION_CONTEXT ( 3 ) GLOBAL_UNCERTAINTY_ASSIGNED_CONTEXT ( ( #148 ) ) GLOBAL_UNIT_ASSIGNED_CONTEXT ( ( #147, #153, #91 ) ) REPRESENTATION_CONTEXT ( 'NONE', 'WORKASPACE' ) );
#97 = ORIENTED_EDGE ( 'NONE', *, *, #18, .T. ) ;
#98 = ORIENTED_EDGE ( 'NONE', *, *, #175, .F. ) ;
#99 = LOCAL_TIME ( 15, 51, 57.00000000000000000, #80 ) ;
#100 = FACE_BOUND ( 'NONE', #81, .T. ) ;
#101 = DIRECTION ( 'NONE',  ( 0.000000000000000000, 0.000000000000000000, 1.000000000000000000 ) ) ;
#102 = EDGE_CURVE ( 'NONE', #28, #151, #63, .T. ) ;
#103 = CARTESIAN_POINT ( 'NONE',  ( -3.500000000000000000, 0.000000000000000000, 125.0000000000000000 ) ) ;
#104 = ORGANIZATION ( 'NEURÈENÝ', 'NEURÈENÝ', '' ) ;
#105 = PLANE ( 'NONE',  #241 ) ;
#106 = EDGE_CURVE ( 'NONE', #70, #191, #236, .T. ) ;
#107 = CARTESIAN_POINT ( 'NONE',  ( 6.000000000000000888, 7.347880794884120722E-16, 5.000000000000000000 ) ) ;
#108 = ORIENTED_EDGE ( 'NONE', *, *, #184, .T. ) ;
#109 = AXIS2_PLACEMENT_3D ( 'NONE', #84, #197, #128 ) ;
#110 = CC_DESIGN_APPROVAL ( #7, ( #220 ) ) ;
#111 = APPROVAL_PERSON_ORGANIZATION ( #185, #7, #30 ) ;
#112 = CARTESIAN_POINT ( 'NONE',  ( 3.500000000000000000, 4.286263797015736595E-16, 5.000000000000000000 ) ) ;
#113 = APPLICATION_PROTOCOL_DEFINITION ( 'international standard', 'config_control_design', 1994, #6 ) ;
#114 = DESIGN_CONTEXT ( 'detailed design', #78, 'design' ) ;
#115 = CARTESIAN_POINT ( 'NONE',  ( 0.000000000000000000, 0.000000000000000000, 125.0000000000000000 ) ) ;
#116 = ORIENTED_EDGE ( 'NONE', *, *, #85, .T. ) ;
#117 = PERSON_AND_ORGANIZATION ( #133, #104 ) ;
#118 = ORIENTED_EDGE ( 'NONE', *, *, #102, .T. ) ;
#119 = EDGE_CURVE ( 'NONE', #151, #191, #150, .T. ) ;
#120 = DIRECTION ( 'NONE',  ( 1.000000000000000000, 0.000000000000000000, 0.000000000000000000 ) ) ;
#121 = VERTEX_POINT ( 'NONE', #1 ) ;
#122 = ORIENTED_EDGE ( 'NONE', *, *, #59, .F. ) ;
#123 = DIRECTION ( 'NONE',  ( 1.000000000000000000, 0.000000000000000000, -0.000000000000000000 ) ) ;
#124 = APPLICATION_PROTOCOL_DEFINITION ( 'international standard', 'config_control_design', 1994, #78 ) ;
#125 = DIRECTION ( 'NONE',  ( 0.000000000000000000, 0.000000000000000000, 1.000000000000000000 ) ) ;
#126 = CARTESIAN_POINT ( 'NONE',  ( 0.000000000000000000, 0.000000000000000000, 125.0000000000000000 ) ) ;
#127 = PLANE ( 'NONE',  #109 ) ;
#128 = DIRECTION ( 'NONE',  ( 1.000000000000000000, 0.000000000000000000, -0.000000000000000000 ) ) ;
#129 = DIRECTION ( 'NONE',  ( -0.000000000000000000, -0.000000000000000000, -1.000000000000000000 ) ) ;
#130 = COORDINATED_UNIVERSAL_TIME_OFFSET ( 1, 0, .AHEAD. ) ;
#131 = DIRECTION ( 'NONE',  ( 0.000000000000000000, 0.000000000000000000, 1.000000000000000000 ) ) ;
#132 = CALENDAR_DATE ( 2023, 13, 2 ) ;
#133 = PERSON ( 'NEURÈENÝ', 'NEURÈENÝ', 'NEURÈENÝ', ('NEURÈENÝ'), ('NEURÈENÝ'), ('NEURÈENÝ') ) ;
#134 = CALENDAR_DATE ( 2023, 13, 2 ) ;
#135 = VECTOR ( 'NONE', #2, 1000.000000000000000 ) ;
#136 = APPROVAL_PERSON_ORGANIZATION ( #159, #253, #252 ) ;
#137 = EDGE_LOOP ( 'NONE', ( #97, #116 ) ) ;
#138 = VERTEX_POINT ( 'NONE', #164 ) ;
#139 = CARTESIAN_POINT ( 'NONE',  ( 0.000000000000000000, 0.000000000000000000, 0.000000000000000000 ) ) ;
#140 = ADVANCED_FACE ( 'NONE', ( #162 ), #233, .T. ) ;
#141 = AXIS2_PLACEMENT_3D ( 'NONE', #234, #218, #219 ) ;
#142 = DIRECTION ( 'NONE',  ( 0.000000000000000000, 0.000000000000000000, 1.000000000000000000 ) ) ;
#143 = AXIS2_PLACEMENT_3D ( 'NONE', #226, #204, #223 ) ;
#144 = PRODUCT_DEFINITION_SHAPE ( 'NONE', 'NONE',  #163 ) ;
#145 = DIRECTION ( 'NONE',  ( 0.000000000000000000, 0.000000000000000000, 1.000000000000000000 ) ) ;
#146 = APPROVAL ( #149, 'NEURÈENÝ' ) ;
#147 =( LENGTH_UNIT ( ) NAMED_UNIT ( * ) SI_UNIT ( .MILLI., .METRE. ) );
#148 = UNCERTAINTY_MEASURE_WITH_UNIT (LENGTH_MEASURE( 1.000000000000000082E-05 ), #147, 'distance_accuracy_value', 'NONE');
#149 = APPROVAL_STATUS ( 'not_yet_approved' ) ;
#150 = CIRCLE ( 'NONE', #92, 6.000000000000000888 ) ;
#151 = VERTEX_POINT ( 'NONE', #44 ) ;
#152 = DATE_TIME_ROLE ( 'classification_date' ) ;
#153 =( NAMED_UNIT ( * ) PLANE_ANGLE_UNIT ( ) SI_UNIT ( $, .RADIAN. ) );
#154 = EDGE_CURVE ( 'NONE', #70, #28, #89, .T. ) ;
#155 = APPROVAL_DATE_TIME ( #170, #146 ) ;
#156 = PERSON_AND_ORGANIZATION ( #133, #104 ) ;
#157 = CC_DESIGN_SECURITY_CLASSIFICATION ( #220, ( #210 ) ) ;
#158 = CIRCLE ( 'NONE', #82, 3.500000000000000000 ) ;
#159 = PERSON_AND_ORGANIZATION ( #133, #104 ) ;
#160 = EDGE_LOOP ( 'NONE', ( #225, #93, #75, #34 ) ) ;
#161 = CARTESIAN_POINT ( 'NONE',  ( -6.000000000000000888, 0.000000000000000000, 5.000000000000000000 ) ) ;
#162 = FACE_OUTER_BOUND ( 'NONE', #160, .T. ) ;
#163 = PRODUCT_DEFINITION ( 'NEZNÁMÝ', '', #210, #114 ) ;
#164 = CARTESIAN_POINT ( 'NONE',  ( 3.500000000000000000, 4.286263797015736595E-16, 125.0000000000000000 ) ) ;
#165 = PLANE ( 'NONE',  #169 ) ;
#166 = AXIS2_PLACEMENT_3D ( 'NONE', #178, #142, #199 ) ;
#167 = FACE_OUTER_BOUND ( 'NONE', #227, .T. ) ;
#168 = CIRCLE ( 'NONE', #237, 6.000000000000000888 ) ;
#169 = AXIS2_PLACEMENT_3D ( 'NONE', #20, #101, #179 ) ;
#170 = DATE_AND_TIME ( #10, #229 ) ;
#171 = ORIENTED_EDGE ( 'NONE', *, *, #182, .T. ) ;
#172 = DIRECTION ( 'NONE',  ( 1.000000000000000000, 0.000000000000000000, 0.000000000000000000 ) ) ;
#173 = ORIENTED_EDGE ( 'NONE', *, *, #240, .F. ) ;
#174 = PERSON_AND_ORGANIZATION_ROLE ( 'design_owner' ) ;
#175 = EDGE_CURVE ( 'NONE', #28, #70, #187, .T. ) ;
#176 = DATE_AND_TIME ( #13, #71 ) ;
#177 = ORIENTED_EDGE ( 'NONE', *, *, #154, .T. ) ;
#178 = CARTESIAN_POINT ( 'NONE',  ( 0.000000000000000000, 0.000000000000000000, 5.000000000000000000 ) ) ;
#179 = DIRECTION ( 'NONE',  ( 1.000000000000000000, 0.000000000000000000, -0.000000000000000000 ) ) ;
#180 = ORIENTED_EDGE ( 'NONE', *, *, #182, .F. ) ;
#181 = CARTESIAN_POINT ( 'NONE',  ( -6.000000000000000888, 0.000000000000000000, 5.000000000000000000 ) ) ;
#182 = EDGE_CURVE ( 'NONE', #138, #186, #222, .T. ) ;
#183 = CARTESIAN_POINT ( 'NONE',  ( 0.000000000000000000, 0.000000000000000000, 5.000000000000000000 ) ) ;
#184 = EDGE_CURVE ( 'NONE', #203, #186, #158, .T. ) ;
#185 = PERSON_AND_ORGANIZATION ( #133, #104 ) ;
#186 = VERTEX_POINT ( 'NONE', #112 ) ;
#187 = CIRCLE ( 'NONE', #143, 6.000000000000000888 ) ;
#188 = PERSON_AND_ORGANIZATION ( #133, #104 ) ;
#189 = DATE_TIME_ROLE ( 'creation_date' ) ;
#190 = DATE_AND_TIME ( #134, #5 ) ;
#191 = VERTEX_POINT ( 'NONE', #90 ) ;
#192 = ORIENTED_EDGE ( 'NONE', *, *, #175, .T. ) ;
#193 = AXIS2_PLACEMENT_3D ( 'NONE', #55, #35, #120 ) ;
#194 = DIRECTION ( 'NONE',  ( 1.000000000000000000, 0.000000000000000000, 0.000000000000000000 ) ) ;
#195 = FACE_OUTER_BOUND ( 'NONE', #212, .T. ) ;
#196 = PRODUCT ( '079c', '079c', '', ( #68 ) ) ;
#197 = DIRECTION ( 'NONE',  ( 0.000000000000000000, 0.000000000000000000, 1.000000000000000000 ) ) ;
#198 = VECTOR ( 'NONE', #83, 1000.000000000000000 ) ;
#199 = DIRECTION ( 'NONE',  ( 1.000000000000000000, 0.000000000000000000, 0.000000000000000000 ) ) ;
#200 = CARTESIAN_POINT ( 'NONE',  ( 0.000000000000000000, 0.000000000000000000, 125.0000000000000000 ) ) ;
#201 = DIRECTION ( 'NONE',  ( 1.000000000000000000, 0.000000000000000000, 0.000000000000000000 ) ) ;
#202 = AXIS2_PLACEMENT_3D ( 'NONE', #115, #224, #245 ) ;
#203 = VERTEX_POINT ( 'NONE', #27 ) ;
#204 = DIRECTION ( 'NONE',  ( 0.000000000000000000, 0.000000000000000000, 1.000000000000000000 ) ) ;
#205 = DATE_AND_TIME ( #132, #243 ) ;
#206 = APPROVAL_PERSON_ORGANIZATION ( #117, #146, #47 ) ;
#207 = DATE_AND_TIME ( #57, #99 ) ;
#208 = CC_DESIGN_PERSON_AND_ORGANIZATION_ASSIGNMENT ( #41, #174, ( #196 ) ) ;
#209 = COORDINATED_UNIVERSAL_TIME_OFFSET ( 1, 0, .AHEAD. ) ;
#210 = PRODUCT_DEFINITION_FORMATION_WITH_SPECIFIED_SOURCE ( 'LIBOVOLNÝ', '', #196, .NOT_KNOWN. ) ;
#211 = ORIENTED_EDGE ( 'NONE', *, *, #59, .T. ) ;
#212 = EDGE_LOOP ( 'NONE', ( #173, #76 ) ) ;
#213 = SHAPE_DEFINITION_REPRESENTATION ( #144, #74 ) ;
#214 = FACE_OUTER_BOUND ( 'NONE', #137, .T. ) ;
#215 = AXIS2_PLACEMENT_3D ( 'NONE', #87, #125, #24 ) ;
#216 = AXIS2_PLACEMENT_3D ( 'NONE', #32, #51, #238 ) ;
#217 = CARTESIAN_POINT ( 'NONE',  ( 6.000000000000000888, 7.347880794884120722E-16, 5.000000000000000000 ) ) ;
#218 = DIRECTION ( 'NONE',  ( -0.000000000000000000, -0.000000000000000000, -1.000000000000000000 ) ) ;
#219 = DIRECTION ( 'NONE',  ( -1.000000000000000000, 0.000000000000000000, 0.000000000000000000 ) ) ;
#220 = SECURITY_CLASSIFICATION ( '', '', #11 ) ;
#221 = ORIENTED_EDGE ( 'NONE', *, *, #18, .F. ) ;
#222 = LINE ( 'NONE', #242, #77 ) ;
#223 = DIRECTION ( 'NONE',  ( 1.000000000000000000, 0.000000000000000000, 0.000000000000000000 ) ) ;
#224 = DIRECTION ( 'NONE',  ( -0.000000000000000000, -0.000000000000000000, -1.000000000000000000 ) ) ;
#225 = ORIENTED_EDGE ( 'NONE', *, *, #102, .F. ) ;
#226 = CARTESIAN_POINT ( 'NONE',  ( 0.000000000000000000, 0.000000000000000000, 5.000000000000000000 ) ) ;
#227 = EDGE_LOOP ( 'NONE', ( #180, #221, #247, #108 ) ) ;
#228 = PRODUCT_RELATED_PRODUCT_CATEGORY ( 'detail', '', ( #196 ) ) ;
#229 = LOCAL_TIME ( 15, 51, 57.00000000000000000, #246 ) ;
#230 = PERSON_AND_ORGANIZATION_ROLE ( 'design_supplier' ) ;
#231 = ADVANCED_FACE ( 'NONE', ( #72 ), #239, .T. ) ;
#232 = FACE_OUTER_BOUND ( 'NONE', #15, .T. ) ;
#233 = CYLINDRICAL_SURFACE ( 'NONE', #141, 6.000000000000000888 ) ;
#234 = CARTESIAN_POINT ( 'NONE',  ( 0.000000000000000000, 0.000000000000000000, 5.000000000000000000 ) ) ;
#235 = CC_DESIGN_PERSON_AND_ORGANIZATION_ASSIGNMENT ( #156, #230, ( #210 ) ) ;
#236 = LINE ( 'NONE', #161, #250 ) ;
#237 = AXIS2_PLACEMENT_3D ( 'NONE', #67, #145, #3 ) ;
#238 = DIRECTION ( 'NONE',  ( -1.000000000000000000, 0.000000000000000000, 0.000000000000000000 ) ) ;
#239 = CYLINDRICAL_SURFACE ( 'NONE', #216, 6.000000000000000888 ) ;
#240 = EDGE_CURVE ( 'NONE', #191, #151, #168, .T. ) ;
#241 = AXIS2_PLACEMENT_3D ( 'NONE', #126, #19, #123 ) ;
#242 = CARTESIAN_POINT ( 'NONE',  ( 3.500000000000000000, 4.286263797015736595E-16, 125.0000000000000000 ) ) ;
#243 = LOCAL_TIME ( 15, 51, 57.00000000000000000, #52 ) ;
#244 = EDGE_LOOP ( 'NONE', ( #31, #171, #211, #38 ) ) ;
#245 = DIRECTION ( 'NONE',  ( -1.000000000000000000, 0.000000000000000000, 0.000000000000000000 ) ) ;
#246 = COORDINATED_UNIVERSAL_TIME_OFFSET ( 1, 0, .AHEAD. ) ;
#247 = ORIENTED_EDGE ( 'NONE', *, *, #49, .T. ) ;
#248 = CC_DESIGN_PERSON_AND_ORGANIZATION_ASSIGNMENT ( #50, #54, ( #163 ) ) ;
#249 = PERSON_AND_ORGANIZATION_ROLE ( 'creator' ) ;
#250 = VECTOR ( 'NONE', #60, 1000.000000000000000 ) ;
#251 = PERSON_AND_ORGANIZATION ( #133, #104 ) ;
#252 = APPROVAL_ROLE ( '' ) ;
#253 = APPROVAL ( #12, 'NEURÈENÝ' ) ;
#254 = LINE ( 'NONE', #103, #135 ) ;
#255 = ADVANCED_FACE ( 'NONE', ( #167 ), #65, .T. ) ;
ENDSEC;
END-ISO-10303-21;
