ISO-10303-21;
HEADER;
FILE_DESCRIPTION (( 'STEP AP203' ),
    '1' );
FILE_NAME ('5da3.STEP',
    '2022-07-07T17:27:08',
    ( '' ),
    ( '' ),
    'SwSTEP 2.0',
    'SolidWorks 2019',
    '' );
FILE_SCHEMA (( 'CONFIG_CONTROL_DESIGN' ));
ENDSEC;

DATA;
#1 = CARTESIAN_POINT ( 'NONE',  ( 0.000000000000000000, 0.000000000000000000, 5.000000000000000000 ) ) ;
#2 = PERSON_AND_ORGANIZATION_ROLE ( 'creator' ) ;
#3 = ORIENTED_EDGE ( 'NONE', *, *, #122, .T. ) ;
#4 = EDGE_CURVE ( 'NONE', #6, #211, #108, .T. ) ;
#5 = CIRCLE ( 'NONE', #121, 8.000000000000000000 ) ;
#6 = VERTEX_POINT ( 'NONE', #215 ) ;
#7 = ORIENTED_EDGE ( 'NONE', *, *, #183, .T. ) ;
#8 = CIRCLE ( 'NONE', #153, 5.000000000000000000 ) ;
#9 = PLANE ( 'NONE',  #35 ) ;
#10 = CIRCLE ( 'NONE', #255, 5.000000000000000000 ) ;
#11 = DIRECTION ( 'NONE',  ( -1.000000000000000000, 0.000000000000000000, 0.000000000000000000 ) ) ;
#12 = DIRECTION ( 'NONE',  ( 0.000000000000000000, 0.000000000000000000, 1.000000000000000000 ) ) ;
#13 = CARTESIAN_POINT ( 'NONE',  ( 0.000000000000000000, 0.000000000000000000, 320.0000000000000000 ) ) ;
#14 = VERTEX_POINT ( 'NONE', #110 ) ;
#15 = PERSON_AND_ORGANIZATION ( #170, #175 ) ;
#16 = AXIS2_PLACEMENT_3D ( 'NONE', #1, #113, #39 ) ;
#17 = CARTESIAN_POINT ( 'NONE',  ( 8.000000000000000000, 9.797174393178825657E-16, 0.000000000000000000 ) ) ;
#18 = CC_DESIGN_APPROVAL ( #106, ( #169 ) ) ;
#19 = CARTESIAN_POINT ( 'NONE',  ( 0.000000000000000000, 0.000000000000000000, 320.0000000000000000 ) ) ;
#20 = COORDINATED_UNIVERSAL_TIME_OFFSET ( 1, 0, .AHEAD. ) ;
#21 = CARTESIAN_POINT ( 'NONE',  ( 0.000000000000000000, 0.000000000000000000, 320.0000000000000000 ) ) ;
#22 = PERSON_AND_ORGANIZATION_ROLE ( 'classification_officer' ) ;
#23 = CC_DESIGN_PERSON_AND_ORGANIZATION_ASSIGNMENT ( #61, #216, ( #126 ) ) ;
#24 = CARTESIAN_POINT ( 'NONE',  ( 5.000000000000000000, 6.123233995736766282E-16, 320.0000000000000000 ) ) ;
#25 = APPROVAL_ROLE ( '' ) ;
#26 = PERSON_AND_ORGANIZATION ( #170, #175 ) ;
#27 = ORIENTED_EDGE ( 'NONE', *, *, #102, .T. ) ;
#28 = ORIENTED_EDGE ( 'NONE', *, *, #116, .F. ) ;
#29 = CC_DESIGN_APPROVAL ( #162, ( #126 ) ) ;
#30 = FACE_OUTER_BOUND ( 'NONE', #133, .T. ) ;
#31 = DIRECTION ( 'NONE',  ( 0.000000000000000000, 0.000000000000000000, 1.000000000000000000 ) ) ;
#32 = ORIENTED_EDGE ( 'NONE', *, *, #4, .T. ) ;
#33 = CIRCLE ( 'NONE', #62, 8.000000000000000000 ) ;
#34 = PLANE ( 'NONE',  #187 ) ;
#35 = AXIS2_PLACEMENT_3D ( 'NONE', #127, #67, #209 ) ;
#36 = FACE_OUTER_BOUND ( 'NONE', #244, .T. ) ;
#37 = ADVANCED_FACE ( 'NONE', ( #191 ), #248, .T. ) ;
#38 = ORIENTED_EDGE ( 'NONE', *, *, #220, .F. ) ;
#39 = DIRECTION ( 'NONE',  ( 1.000000000000000000, 0.000000000000000000, 0.000000000000000000 ) ) ;
#40 = DIRECTION ( 'NONE',  ( -0.000000000000000000, -0.000000000000000000, -1.000000000000000000 ) ) ;
#41 = CALENDAR_DATE ( 2022, 7, 7 ) ;
#42 = EDGE_LOOP ( 'NONE', ( #28, #53, #3, #32 ) ) ;
#43 = COORDINATED_UNIVERSAL_TIME_OFFSET ( 1, 0, .AHEAD. ) ;
#44 = COORDINATED_UNIVERSAL_TIME_OFFSET ( 1, 0, .AHEAD. ) ;
#45 = CLOSED_SHELL ( 'NONE', ( #80, #208, #240, #233, #222, #179, #37 ) ) ;
#46 = VERTEX_POINT ( 'NONE', #55 ) ;
#47 = CC_DESIGN_PERSON_AND_ORGANIZATION_ASSIGNMENT ( #138, #100, ( #178 ) ) ;
#48 = DIRECTION ( 'NONE',  ( 1.000000000000000000, 0.000000000000000000, 0.000000000000000000 ) ) ;
#49 =( NAMED_UNIT ( * ) SI_UNIT ( $, .STERADIAN. ) SOLID_ANGLE_UNIT ( ) );
#50 = APPROVAL_PERSON_ORGANIZATION ( #131, #162, #25 ) ;
#51 = FACE_OUTER_BOUND ( 'NONE', #219, .T. ) ;
#52 = CARTESIAN_POINT ( 'NONE',  ( 0.000000000000000000, 0.000000000000000000, 5.000000000000000000 ) ) ;
#53 = ORIENTED_EDGE ( 'NONE', *, *, #203, .F. ) ;
#54 = SHAPE_DEFINITION_REPRESENTATION ( #141, #57 ) ;
#55 = CARTESIAN_POINT ( 'NONE',  ( -5.000000000000000000, 0.000000000000000000, 5.000000000000000000 ) ) ;
#56 = SECURITY_CLASSIFICATION_LEVEL ( 'unclassified' ) ;
#57 = ADVANCED_BREP_SHAPE_REPRESENTATION ( '5da3', ( #139, #221 ), #77 ) ;
#58 = AXIS2_PLACEMENT_3D ( 'NONE', #129, #167, #214 ) ;
#59 = EDGE_CURVE ( 'NONE', #46, #225, #8, .T. ) ;
#60 = ORIENTED_EDGE ( 'NONE', *, *, #213, .F. ) ;
#61 = PERSON_AND_ORGANIZATION ( #170, #175 ) ;
#62 = AXIS2_PLACEMENT_3D ( 'NONE', #254, #98, #75 ) ;
#63 = ORIENTED_EDGE ( 'NONE', *, *, #161, .T. ) ;
#64 = LOCAL_TIME ( 19, 27, 8.000000000000000000, #118 ) ;
#65 = PRODUCT_DEFINITION ( 'NEZNÁMÝ', '', #126, #236 ) ;
#66 = ORIENTED_EDGE ( 'NONE', *, *, #220, .T. ) ;
#67 = DIRECTION ( 'NONE',  ( 0.000000000000000000, 0.000000000000000000, 1.000000000000000000 ) ) ;
#68 = CARTESIAN_POINT ( 'NONE',  ( 0.000000000000000000, 0.000000000000000000, 0.000000000000000000 ) ) ;
#69 = ORIENTED_EDGE ( 'NONE', *, *, #116, .T. ) ;
#70 = CARTESIAN_POINT ( 'NONE',  ( -5.000000000000000000, 0.000000000000000000, 320.0000000000000000 ) ) ;
#71 = DIRECTION ( 'NONE',  ( -0.000000000000000000, -0.000000000000000000, -1.000000000000000000 ) ) ;
#72 = LINE ( 'NONE', #197, #238 ) ;
#73 = APPROVAL_ROLE ( '' ) ;
#74 = DIRECTION ( 'NONE',  ( -0.000000000000000000, -0.000000000000000000, -1.000000000000000000 ) ) ;
#75 = DIRECTION ( 'NONE',  ( 1.000000000000000000, 0.000000000000000000, 0.000000000000000000 ) ) ;
#76 = PERSON_AND_ORGANIZATION ( #170, #175 ) ;
#77 =( GEOMETRIC_REPRESENTATION_CONTEXT ( 3 ) GLOBAL_UNCERTAINTY_ASSIGNED_CONTEXT ( ( #97 ) ) GLOBAL_UNIT_ASSIGNED_CONTEXT ( ( #86, #148, #49 ) ) REPRESENTATION_CONTEXT ( 'NONE', 'WORKASPACE' ) );
#78 = LINE ( 'NONE', #70, #204 ) ;
#79 = APPROVAL_DATE_TIME ( #196, #162 ) ;
#80 = ADVANCED_FACE ( 'NONE', ( #51 ), #114, .T. ) ;
#81 = LOCAL_TIME ( 19, 27, 8.000000000000000000, #43 ) ;
#82 = ORIENTED_EDGE ( 'NONE', *, *, #183, .F. ) ;
#83 = FACE_OUTER_BOUND ( 'NONE', #42, .T. ) ;
#84 = VECTOR ( 'NONE', #74, 1000.000000000000000 ) ;
#85 = ORIENTED_EDGE ( 'NONE', *, *, #242, .F. ) ;
#86 =( LENGTH_UNIT ( ) NAMED_UNIT ( * ) SI_UNIT ( .MILLI., .METRE. ) );
#87 = CIRCLE ( 'NONE', #232, 5.000000000000000000 ) ;
#88 = CC_DESIGN_DATE_AND_TIME_ASSIGNMENT ( #91, #253, ( #65 ) ) ;
#89 = DIRECTION ( 'NONE',  ( 1.000000000000000000, 0.000000000000000000, 0.000000000000000000 ) ) ;
#90 = CARTESIAN_POINT ( 'NONE',  ( 0.000000000000000000, 0.000000000000000000, 0.000000000000000000 ) ) ;
#91 = DATE_AND_TIME ( #41, #181 ) ;
#92 = PRODUCT_RELATED_PRODUCT_CATEGORY ( 'detail', '', ( #178 ) ) ;
#93 = DIRECTION ( 'NONE',  ( -0.000000000000000000, -0.000000000000000000, -1.000000000000000000 ) ) ;
#94 = COORDINATED_UNIVERSAL_TIME_OFFSET ( 1, 0, .AHEAD. ) ;
#95 = ORIENTED_EDGE ( 'NONE', *, *, #111, .T. ) ;
#96 = APPROVAL_DATE_TIME ( #229, #106 ) ;
#97 = UNCERTAINTY_MEASURE_WITH_UNIT (LENGTH_MEASURE( 1.000000000000000082E-05 ), #86, 'distance_accuracy_value', 'NONE');
#98 = DIRECTION ( 'NONE',  ( 0.000000000000000000, 0.000000000000000000, 1.000000000000000000 ) ) ;
#99 = PERSON_AND_ORGANIZATION ( #170, #175 ) ;
#100 = PERSON_AND_ORGANIZATION_ROLE ( 'design_owner' ) ;
#101 = ORIENTED_EDGE ( 'NONE', *, *, #122, .F. ) ;
#102 = EDGE_CURVE ( 'NONE', #243, #46, #78, .T. ) ;
#103 = ORIENTED_EDGE ( 'NONE', *, *, #111, .F. ) ;
#104 = LOCAL_TIME ( 19, 27, 8.000000000000000000, #44 ) ;
#105 = DIRECTION ( 'NONE',  ( 0.000000000000000000, 0.000000000000000000, 1.000000000000000000 ) ) ;
#106 = APPROVAL ( #192, 'NEURÈENÝ' ) ;
#107 = DIRECTION ( 'NONE',  ( -1.000000000000000000, 0.000000000000000000, 0.000000000000000000 ) ) ;
#108 = CIRCLE ( 'NONE', #245, 8.000000000000000000 ) ;
#109 = CARTESIAN_POINT ( 'NONE',  ( 5.000000000000000000, 6.123233995736766282E-16, 5.000000000000000000 ) ) ;
#110 = CARTESIAN_POINT ( 'NONE',  ( -8.000000000000000000, 0.000000000000000000, 5.000000000000000000 ) ) ;
#111 = EDGE_CURVE ( 'NONE', #128, #225, #250, .T. ) ;
#112 = FACE_OUTER_BOUND ( 'NONE', #142, .T. ) ;
#113 = DIRECTION ( 'NONE',  ( 0.000000000000000000, 0.000000000000000000, 1.000000000000000000 ) ) ;
#114 = CYLINDRICAL_SURFACE ( 'NONE', #58, 5.000000000000000000 ) ;
#115 = PERSON_AND_ORGANIZATION_ROLE ( 'design_supplier' ) ;
#116 = EDGE_CURVE ( 'NONE', #158, #211, #72, .T. ) ;
#117 = ORIENTED_EDGE ( 'NONE', *, *, #102, .F. ) ;
#118 = COORDINATED_UNIVERSAL_TIME_OFFSET ( 1, 0, .AHEAD. ) ;
#119 = CIRCLE ( 'NONE', #164, 5.000000000000000000 ) ;
#120 = CC_DESIGN_PERSON_AND_ORGANIZATION_ASSIGNMENT ( #26, #22, ( #169 ) ) ;
#121 = AXIS2_PLACEMENT_3D ( 'NONE', #90, #12, #163 ) ;
#122 = EDGE_CURVE ( 'NONE', #14, #6, #130, .T. ) ;
#123 = CIRCLE ( 'NONE', #16, 8.000000000000000000 ) ;
#124 = APPROVAL_PERSON_ORGANIZATION ( #99, #106, #73 ) ;
#125 = DIRECTION ( 'NONE',  ( 1.000000000000000000, 0.000000000000000000, -0.000000000000000000 ) ) ;
#126 = PRODUCT_DEFINITION_FORMATION_WITH_SPECIFIED_SOURCE ( 'LIBOVOLNÝ', '', #178, .NOT_KNOWN. ) ;
#127 = CARTESIAN_POINT ( 'NONE',  ( 0.000000000000000000, 0.000000000000000000, 5.000000000000000000 ) ) ;
#128 = VERTEX_POINT ( 'NONE', #24 ) ;
#129 = CARTESIAN_POINT ( 'NONE',  ( 0.000000000000000000, 0.000000000000000000, 320.0000000000000000 ) ) ;
#130 = LINE ( 'NONE', #154, #84 ) ;
#131 = PERSON_AND_ORGANIZATION ( #170, #175 ) ;
#132 = AXIS2_PLACEMENT_3D ( 'NONE', #195, #252, #156 ) ;
#133 = EDGE_LOOP ( 'NONE', ( #201, #69, #182, #101 ) ) ;
#134 = DATE_TIME_ROLE ( 'classification_date' ) ;
#135 = AXIS2_PLACEMENT_3D ( 'NONE', #52, #71, #11 ) ;
#136 = CC_DESIGN_PERSON_AND_ORGANIZATION_ASSIGNMENT ( #15, #2, ( #65 ) ) ;
#137 = CARTESIAN_POINT ( 'NONE',  ( 0.000000000000000000, 0.000000000000000000, 0.000000000000000000 ) ) ;
#138 = PERSON_AND_ORGANIZATION ( #170, #175 ) ;
#139 = MANIFOLD_SOLID_BREP ( 'Pøidat vysunutím3', #45 ) ;
#140 = ORIENTED_EDGE ( 'NONE', *, *, #203, .T. ) ;
#141 = PRODUCT_DEFINITION_SHAPE ( 'NONE', 'NONE',  #65 ) ;
#142 = EDGE_LOOP ( 'NONE', ( #103, #60, #27, #207 ) ) ;
#143 = DIRECTION ( 'NONE',  ( 0.000000000000000000, 0.000000000000000000, 1.000000000000000000 ) ) ;
#144 = APPLICATION_PROTOCOL_DEFINITION ( 'international standard', 'config_control_design', 1994, #218 ) ;
#145 = ORIENTED_EDGE ( 'NONE', *, *, #213, .T. ) ;
#146 = CARTESIAN_POINT ( 'NONE',  ( 5.000000000000000000, 6.123233995736766282E-16, 320.0000000000000000 ) ) ;
#147 = APPROVAL_PERSON_ORGANIZATION ( #168, #152, #176 ) ;
#148 =( NAMED_UNIT ( * ) PLANE_ANGLE_UNIT ( ) SI_UNIT ( $, .RADIAN. ) );
#149 = DIRECTION ( 'NONE',  ( 0.000000000000000000, 0.000000000000000000, 1.000000000000000000 ) ) ;
#150 = CALENDAR_DATE ( 2022, 7, 7 ) ;
#151 = DIRECTION ( 'NONE',  ( -1.000000000000000000, 0.000000000000000000, 0.000000000000000000 ) ) ;
#152 = APPROVAL ( #174, 'NEURÈENÝ' ) ;
#153 = AXIS2_PLACEMENT_3D ( 'NONE', #226, #149, #231 ) ;
#154 = CARTESIAN_POINT ( 'NONE',  ( -8.000000000000000000, 0.000000000000000000, 5.000000000000000000 ) ) ;
#155 = DATE_AND_TIME ( #251, #64 ) ;
#156 = DIRECTION ( 'NONE',  ( 1.000000000000000000, 0.000000000000000000, -0.000000000000000000 ) ) ;
#157 = APPLICATION_PROTOCOL_DEFINITION ( 'international standard', 'config_control_design', 1994, #237 ) ;
#158 = VERTEX_POINT ( 'NONE', #173 ) ;
#159 = CC_DESIGN_SECURITY_CLASSIFICATION ( #169, ( #126 ) ) ;
#160 = EDGE_LOOP ( 'NONE', ( #145, #7 ) ) ;
#161 = EDGE_CURVE ( 'NONE', #158, #14, #123, .T. ) ;
#162 = APPROVAL ( #217, 'NEURÈENÝ' ) ;
#163 = DIRECTION ( 'NONE',  ( 1.000000000000000000, 0.000000000000000000, 0.000000000000000000 ) ) ;
#164 = AXIS2_PLACEMENT_3D ( 'NONE', #13, #105, #89 ) ;
#165 = ORIENTED_EDGE ( 'NONE', *, *, #59, .F. ) ;
#166 = VECTOR ( 'NONE', #40, 1000.000000000000000 ) ;
#167 = DIRECTION ( 'NONE',  ( -0.000000000000000000, -0.000000000000000000, -1.000000000000000000 ) ) ;
#168 = PERSON_AND_ORGANIZATION ( #170, #175 ) ;
#169 = SECURITY_CLASSIFICATION ( '', '', #56 ) ;
#170 = PERSON ( 'NEURÈENÝ', 'NEURÈENÝ', 'NEURÈENÝ', ('NEURÈENÝ'), ('NEURÈENÝ'), ('NEURÈENÝ') ) ;
#171 = DIRECTION ( 'NONE',  ( -0.000000000000000000, -0.000000000000000000, -1.000000000000000000 ) ) ;
#172 = DIRECTION ( 'NONE',  ( 1.000000000000000000, 0.000000000000000000, 0.000000000000000000 ) ) ;
#173 = CARTESIAN_POINT ( 'NONE',  ( 8.000000000000000000, 9.797174393178825657E-16, 5.000000000000000000 ) ) ;
#174 = APPROVAL_STATUS ( 'not_yet_approved' ) ;
#175 = ORGANIZATION ( 'NEURÈENÝ', 'NEURÈENÝ', '' ) ;
#176 = APPROVAL_ROLE ( '' ) ;
#177 = CC_DESIGN_PERSON_AND_ORGANIZATION_ASSIGNMENT ( #76, #115, ( #126 ) ) ;
#178 = PRODUCT ( '5da3', '5da3', '', ( #224 ) ) ;
#179 = ADVANCED_FACE ( 'NONE', ( #112 ), #194, .T. ) ;
#180 = EDGE_LOOP ( 'NONE', ( #202, #85 ) ) ;
#181 = LOCAL_TIME ( 19, 27, 8.000000000000000000, #94 ) ;
#182 = ORIENTED_EDGE ( 'NONE', *, *, #242, .T. ) ;
#183 = EDGE_CURVE ( 'NONE', #128, #243, #10, .T. ) ;
#184 = FACE_BOUND ( 'NONE', #199, .T. ) ;
#185 = CYLINDRICAL_SURFACE ( 'NONE', #135, 8.000000000000000000 ) ;
#186 = AXIS2_PLACEMENT_3D ( 'NONE', #19, #171, #151 ) ;
#187 = AXIS2_PLACEMENT_3D ( 'NONE', #68, #143, #125 ) ;
#188 = CARTESIAN_POINT ( 'NONE',  ( 0.000000000000000000, 0.000000000000000000, 5.000000000000000000 ) ) ;
#189 = CC_DESIGN_DATE_AND_TIME_ASSIGNMENT ( #155, #134, ( #169 ) ) ;
#190 = DIRECTION ( 'NONE',  ( 0.000000000000000000, 0.000000000000000000, 1.000000000000000000 ) ) ;
#191 = FACE_OUTER_BOUND ( 'NONE', #160, .T. ) ;
#192 = APPROVAL_STATUS ( 'not_yet_approved' ) ;
#193 = CARTESIAN_POINT ( 'NONE',  ( 0.000000000000000000, 0.000000000000000000, 5.000000000000000000 ) ) ;
#194 = CYLINDRICAL_SURFACE ( 'NONE', #186, 5.000000000000000000 ) ;
#195 = CARTESIAN_POINT ( 'NONE',  ( 0.000000000000000000, 0.000000000000000000, 320.0000000000000000 ) ) ;
#196 = DATE_AND_TIME ( #200, #104 ) ;
#197 = CARTESIAN_POINT ( 'NONE',  ( 8.000000000000000000, 9.797174393178825657E-16, 5.000000000000000000 ) ) ;
#198 = CALENDAR_DATE ( 2022, 7, 7 ) ;
#199 = EDGE_LOOP ( 'NONE', ( #165, #38 ) ) ;
#200 = CALENDAR_DATE ( 2022, 7, 7 ) ;
#201 = ORIENTED_EDGE ( 'NONE', *, *, #161, .F. ) ;
#202 = ORIENTED_EDGE ( 'NONE', *, *, #4, .F. ) ;
#203 = EDGE_CURVE ( 'NONE', #14, #158, #33, .T. ) ;
#204 = VECTOR ( 'NONE', #93, 1000.000000000000000 ) ;
#205 = AXIS2_PLACEMENT_3D ( 'NONE', #188, #206, #107 ) ;
#206 = DIRECTION ( 'NONE',  ( -0.000000000000000000, -0.000000000000000000, -1.000000000000000000 ) ) ;
#207 = ORIENTED_EDGE ( 'NONE', *, *, #59, .T. ) ;
#208 = ADVANCED_FACE ( 'NONE', ( #30 ), #185, .T. ) ;
#209 = DIRECTION ( 'NONE',  ( 1.000000000000000000, 0.000000000000000000, -0.000000000000000000 ) ) ;
#210 = DIRECTION ( 'NONE',  ( 0.000000000000000000, 0.000000000000000000, 1.000000000000000000 ) ) ;
#211 = VERTEX_POINT ( 'NONE', #17 ) ;
#212 = DATE_AND_TIME ( #198, #81 ) ;
#213 = EDGE_CURVE ( 'NONE', #243, #128, #119, .T. ) ;
#214 = DIRECTION ( 'NONE',  ( -1.000000000000000000, 0.000000000000000000, 0.000000000000000000 ) ) ;
#215 = CARTESIAN_POINT ( 'NONE',  ( -8.000000000000000000, 0.000000000000000000, 0.000000000000000000 ) ) ;
#216 = PERSON_AND_ORGANIZATION_ROLE ( 'creator' ) ;
#217 = APPROVAL_STATUS ( 'not_yet_approved' ) ;
#218 = APPLICATION_CONTEXT ( 'configuration controlled 3d designs of mechanical parts and assemblies' ) ;
#219 = EDGE_LOOP ( 'NONE', ( #82, #95, #66, #117 ) ) ;
#220 = EDGE_CURVE ( 'NONE', #225, #46, #87, .T. ) ;
#221 = AXIS2_PLACEMENT_3D ( 'NONE', #249, #190, #227 ) ;
#222 = ADVANCED_FACE ( 'NONE', ( #247 ), #34, .F. ) ;
#223 = CYLINDRICAL_SURFACE ( 'NONE', #205, 8.000000000000000000 ) ;
#224 = MECHANICAL_CONTEXT ( 'NONE', #218, 'mechanical' ) ;
#225 = VERTEX_POINT ( 'NONE', #109 ) ;
#226 = CARTESIAN_POINT ( 'NONE',  ( 0.000000000000000000, 0.000000000000000000, 5.000000000000000000 ) ) ;
#227 = DIRECTION ( 'NONE',  ( 1.000000000000000000, 0.000000000000000000, 0.000000000000000000 ) ) ;
#228 = DIRECTION ( 'NONE',  ( -0.000000000000000000, -0.000000000000000000, -1.000000000000000000 ) ) ;
#229 = DATE_AND_TIME ( #150, #239 ) ;
#230 = DIRECTION ( 'NONE',  ( 0.000000000000000000, 0.000000000000000000, 1.000000000000000000 ) ) ;
#231 = DIRECTION ( 'NONE',  ( 1.000000000000000000, 0.000000000000000000, 0.000000000000000000 ) ) ;
#232 = AXIS2_PLACEMENT_3D ( 'NONE', #193, #31, #48 ) ;
#233 = ADVANCED_FACE ( 'NONE', ( #184, #36 ), #9, .T. ) ;
#234 = DIRECTION ( 'NONE',  ( 1.000000000000000000, 0.000000000000000000, 0.000000000000000000 ) ) ;
#235 = APPROVAL_DATE_TIME ( #212, #152 ) ;
#236 = DESIGN_CONTEXT ( 'detailed design', #237, 'design' ) ;
#237 = APPLICATION_CONTEXT ( 'configuration controlled 3d designs of mechanical parts and assemblies' ) ;
#238 = VECTOR ( 'NONE', #228, 1000.000000000000000 ) ;
#239 = LOCAL_TIME ( 19, 27, 8.000000000000000000, #20 ) ;
#240 = ADVANCED_FACE ( 'NONE', ( #83 ), #223, .T. ) ;
#241 = CC_DESIGN_APPROVAL ( #152, ( #65 ) ) ;
#242 = EDGE_CURVE ( 'NONE', #211, #6, #5, .T. ) ;
#243 = VERTEX_POINT ( 'NONE', #246 ) ;
#244 = EDGE_LOOP ( 'NONE', ( #140, #63 ) ) ;
#245 = AXIS2_PLACEMENT_3D ( 'NONE', #137, #210, #234 ) ;
#246 = CARTESIAN_POINT ( 'NONE',  ( -5.000000000000000000, 0.000000000000000000, 320.0000000000000000 ) ) ;
#247 = FACE_OUTER_BOUND ( 'NONE', #180, .T. ) ;
#248 = PLANE ( 'NONE',  #132 ) ;
#249 = CARTESIAN_POINT ( 'NONE',  ( 0.000000000000000000, 0.000000000000000000, 0.000000000000000000 ) ) ;
#250 = LINE ( 'NONE', #146, #166 ) ;
#251 = CALENDAR_DATE ( 2022, 7, 7 ) ;
#252 = DIRECTION ( 'NONE',  ( 0.000000000000000000, 0.000000000000000000, 1.000000000000000000 ) ) ;
#253 = DATE_TIME_ROLE ( 'creation_date' ) ;
#254 = CARTESIAN_POINT ( 'NONE',  ( 0.000000000000000000, 0.000000000000000000, 5.000000000000000000 ) ) ;
#255 = AXIS2_PLACEMENT_3D ( 'NONE', #21, #230, #172 ) ;
ENDSEC;
END-ISO-10303-21;
