ISO-10303-21;
HEADER;
FILE_DESCRIPTION (( 'STEP AP203' ),
    '1' );
FILE_NAME ('852b.STEP',
    '2022-07-07T17:51:11',
    ( '' ),
    ( '' ),
    'SwSTEP 2.0',
    'SolidWorks 2019',
    '' );
FILE_SCHEMA (( 'CONFIG_CONTROL_DESIGN' ));
ENDSEC;

DATA;
#1 = APPROVAL_PERSON_ORGANIZATION ( #167, #226, #110 ) ;
#2 = DIRECTION ( 'NONE',  ( 0.000000000000000000, 0.000000000000000000, 1.000000000000000000 ) ) ;
#3 = CARTESIAN_POINT ( 'NONE',  ( 0.000000000000000000, 0.000000000000000000, 503.0000000000000000 ) ) ;
#4 = MECHANICAL_CONTEXT ( 'NONE', #139, 'mechanical' ) ;
#5 = VECTOR ( 'NONE', #179, 1000.000000000000000 ) ;
#6 = ORIENTED_EDGE ( 'NONE', *, *, #114, .F. ) ;
#7 = EDGE_CURVE ( 'NONE', #120, #25, #217, .T. ) ;
#8 = DIRECTION ( 'NONE',  ( -1.000000000000000000, 0.000000000000000000, 0.000000000000000000 ) ) ;
#9 = LINE ( 'NONE', #206, #75 ) ;
#10 = ORIENTED_EDGE ( 'NONE', *, *, #230, .T. ) ;
#11 = ORIENTED_EDGE ( 'NONE', *, *, #19, .F. ) ;
#12 = DIRECTION ( 'NONE',  ( 1.000000000000000000, 0.000000000000000000, -0.000000000000000000 ) ) ;
#13 = ORIENTED_EDGE ( 'NONE', *, *, #197, .T. ) ;
#14 = DIRECTION ( 'NONE',  ( 1.000000000000000000, 0.000000000000000000, -0.000000000000000000 ) ) ;
#15 = PERSON_AND_ORGANIZATION ( #238, #131 ) ;
#16 = COORDINATED_UNIVERSAL_TIME_OFFSET ( 1, 0, .AHEAD. ) ;
#17 = PERSON_AND_ORGANIZATION_ROLE ( 'design_supplier' ) ;
#18 = CC_DESIGN_PERSON_AND_ORGANIZATION_ASSIGNMENT ( #63, #137, ( #135 ) ) ;
#19 = EDGE_CURVE ( 'NONE', #46, #249, #52, .T. ) ;
#20 = EDGE_CURVE ( 'NONE', #105, #109, #181, .T. ) ;
#21 = CARTESIAN_POINT ( 'NONE',  ( 0.000000000000000000, 0.000000000000000000, 0.000000000000000000 ) ) ;
#22 = DIRECTION ( 'NONE',  ( -0.000000000000000000, -0.000000000000000000, -1.000000000000000000 ) ) ;
#23 = CC_DESIGN_DATE_AND_TIME_ASSIGNMENT ( #218, #86, ( #183 ) ) ;
#24 = AXIS2_PLACEMENT_3D ( 'NONE', #244, #123, #14 ) ;
#25 = VERTEX_POINT ( 'NONE', #233 ) ;
#26 = DIRECTION ( 'NONE',  ( 1.000000000000000000, 0.000000000000000000, 0.000000000000000000 ) ) ;
#27 = ADVANCED_FACE ( 'NONE', ( #185 ), #172, .T. ) ;
#28 = FACE_OUTER_BOUND ( 'NONE', #166, .T. ) ;
#29 = EDGE_LOOP ( 'NONE', ( #192, #102 ) ) ;
#30 = UNCERTAINTY_MEASURE_WITH_UNIT (LENGTH_MEASURE( 1.000000000000000082E-05 ), #159, 'distance_accuracy_value', 'NONE');
#31 = CARTESIAN_POINT ( 'NONE',  ( 0.000000000000000000, 0.000000000000000000, 3.000000000000000000 ) ) ;
#32 = EDGE_LOOP ( 'NONE', ( #48, #51 ) ) ;
#33 = DATE_AND_TIME ( #150, #156 ) ;
#34 = CARTESIAN_POINT ( 'NONE',  ( -4.000000000000000000, 0.000000000000000000, 3.000000000000000000 ) ) ;
#35 = COORDINATED_UNIVERSAL_TIME_OFFSET ( 1, 0, .AHEAD. ) ;
#36 = FACE_OUTER_BOUND ( 'NONE', #225, .T. ) ;
#37 = CALENDAR_DATE ( 2022, 7, 7 ) ;
#38 = AXIS2_PLACEMENT_3D ( 'NONE', #84, #186, #26 ) ;
#39 = LOCAL_TIME ( 19, 51, 11.00000000000000000, #175 ) ;
#40 = CC_DESIGN_PERSON_AND_ORGANIZATION_ASSIGNMENT ( #171, #17, ( #45 ) ) ;
#41 = ADVANCED_FACE ( 'NONE', ( #28 ), #50, .T. ) ;
#42 = CARTESIAN_POINT ( 'NONE',  ( -2.000000000000000000, 0.000000000000000000, 503.0000000000000000 ) ) ;
#43 = DIRECTION ( 'NONE',  ( 1.000000000000000000, 0.000000000000000000, 0.000000000000000000 ) ) ;
#44 = CYLINDRICAL_SURFACE ( 'NONE', #60, 2.000000000000000000 ) ;
#45 = PRODUCT_DEFINITION_FORMATION_WITH_SPECIFIED_SOURCE ( 'LIBOVOLNÝ', '', #135, .NOT_KNOWN. ) ;
#46 = VERTEX_POINT ( 'NONE', #170 ) ;
#47 = DIRECTION ( 'NONE',  ( 0.000000000000000000, 0.000000000000000000, 1.000000000000000000 ) ) ;
#48 = ORIENTED_EDGE ( 'NONE', *, *, #202, .F. ) ;
#49 = DIRECTION ( 'NONE',  ( -0.000000000000000000, -0.000000000000000000, -1.000000000000000000 ) ) ;
#50 = CYLINDRICAL_SURFACE ( 'NONE', #132, 4.000000000000000000 ) ;
#51 = ORIENTED_EDGE ( 'NONE', *, *, #7, .F. ) ;
#52 = CIRCLE ( 'NONE', #38, 2.000000000000000000 ) ;
#53 = DIRECTION ( 'NONE',  ( 1.000000000000000000, 0.000000000000000000, 0.000000000000000000 ) ) ;
#54 = ORIENTED_EDGE ( 'NONE', *, *, #163, .F. ) ;
#55 = DATE_AND_TIME ( #235, #199 ) ;
#56 = DIRECTION ( 'NONE',  ( -0.000000000000000000, -0.000000000000000000, -1.000000000000000000 ) ) ;
#57 = PERSON_AND_ORGANIZATION_ROLE ( 'creator' ) ;
#58 = AXIS2_PLACEMENT_3D ( 'NONE', #128, #107, #213 ) ;
#59 = PERSON_AND_ORGANIZATION_ROLE ( 'creator' ) ;
#60 = AXIS2_PLACEMENT_3D ( 'NONE', #3, #22, #237 ) ;
#61 = CARTESIAN_POINT ( 'NONE',  ( 0.000000000000000000, 0.000000000000000000, 0.000000000000000000 ) ) ;
#62 = AXIS2_PLACEMENT_3D ( 'NONE', #31, #191, #12 ) ;
#63 = PERSON_AND_ORGANIZATION ( #238, #131 ) ;
#64 = ORIENTED_EDGE ( 'NONE', *, *, #234, .F. ) ;
#65 = CARTESIAN_POINT ( 'NONE',  ( 0.000000000000000000, 0.000000000000000000, 503.0000000000000000 ) ) ;
#66 = EDGE_LOOP ( 'NONE', ( #142, #245 ) ) ;
#67 = DIRECTION ( 'NONE',  ( 0.000000000000000000, 0.000000000000000000, 1.000000000000000000 ) ) ;
#68 = ORIENTED_EDGE ( 'NONE', *, *, #234, .T. ) ;
#69 = APPROVAL_STATUS ( 'not_yet_approved' ) ;
#70 = DIRECTION ( 'NONE',  ( -0.000000000000000000, -0.000000000000000000, -1.000000000000000000 ) ) ;
#71 = CIRCLE ( 'NONE', #99, 4.000000000000000000 ) ;
#72 = PERSON_AND_ORGANIZATION ( #238, #131 ) ;
#73 = CARTESIAN_POINT ( 'NONE',  ( 4.000000000000000000, 4.898587196589412829E-16, 3.000000000000000000 ) ) ;
#74 = AXIS2_PLACEMENT_3D ( 'NONE', #96, #205, #77 ) ;
#75 = VECTOR ( 'NONE', #49, 1000.000000000000000 ) ;
#76 = AXIS2_PLACEMENT_3D ( 'NONE', #113, #195, #8 ) ;
#77 = DIRECTION ( 'NONE',  ( 1.000000000000000000, 0.000000000000000000, -0.000000000000000000 ) ) ;
#78 = APPLICATION_CONTEXT ( 'configuration controlled 3d designs of mechanical parts and assemblies' ) ;
#79 = ORIENTED_EDGE ( 'NONE', *, *, #197, .F. ) ;
#80 = APPROVAL ( #69, 'NEURÈENÝ' ) ;
#81 = CYLINDRICAL_SURFACE ( 'NONE', #76, 2.000000000000000000 ) ;
#82 = ADVANCED_BREP_SHAPE_REPRESENTATION ( '852b', ( #148, #162 ), #108 ) ;
#83 = CARTESIAN_POINT ( 'NONE',  ( -4.000000000000000000, 0.000000000000000000, 3.000000000000000000 ) ) ;
#84 = CARTESIAN_POINT ( 'NONE',  ( 0.000000000000000000, 0.000000000000000000, 3.000000000000000000 ) ) ;
#85 = ORIENTED_EDGE ( 'NONE', *, *, #230, .F. ) ;
#86 = DATE_TIME_ROLE ( 'classification_date' ) ;
#87 = APPROVAL_DATE_TIME ( #55, #226 ) ;
#88 = CARTESIAN_POINT ( 'NONE',  ( 0.000000000000000000, 0.000000000000000000, 3.000000000000000000 ) ) ;
#89 = AXIS2_PLACEMENT_3D ( 'NONE', #88, #229, #141 ) ;
#90 = EDGE_CURVE ( 'NONE', #109, #105, #71, .T. ) ;
#91 = DATE_AND_TIME ( #214, #39 ) ;
#92 = CALENDAR_DATE ( 2022, 7, 7 ) ;
#93 = SECURITY_CLASSIFICATION_LEVEL ( 'unclassified' ) ;
#94 = CIRCLE ( 'NONE', #240, 2.000000000000000000 ) ;
#95 = CC_DESIGN_APPROVAL ( #158, ( #183 ) ) ;
#96 = CARTESIAN_POINT ( 'NONE',  ( 0.000000000000000000, 0.000000000000000000, 0.000000000000000000 ) ) ;
#97 = PRODUCT_DEFINITION_SHAPE ( 'NONE', 'NONE',  #118 ) ;
#98 = DIRECTION ( 'NONE',  ( 1.000000000000000000, 0.000000000000000000, 0.000000000000000000 ) ) ;
#99 = AXIS2_PLACEMENT_3D ( 'NONE', #251, #250, #53 ) ;
#100 =( NAMED_UNIT ( * ) PLANE_ANGLE_UNIT ( ) SI_UNIT ( $, .RADIAN. ) );
#101 = CARTESIAN_POINT ( 'NONE',  ( 4.000000000000000000, 4.898587196589412829E-16, 0.000000000000000000 ) ) ;
#102 = ORIENTED_EDGE ( 'NONE', *, *, #90, .T. ) ;
#103 = DIRECTION ( 'NONE',  ( 1.000000000000000000, 0.000000000000000000, 0.000000000000000000 ) ) ;
#104 = CLOSED_SHELL ( 'NONE', ( #254, #41, #27, #187, #239, #145, #138 ) ) ;
#105 = VERTEX_POINT ( 'NONE', #34 ) ;
#106 = DIRECTION ( 'NONE',  ( 1.000000000000000000, 0.000000000000000000, 0.000000000000000000 ) ) ;
#107 = DIRECTION ( 'NONE',  ( -0.000000000000000000, -0.000000000000000000, -1.000000000000000000 ) ) ;
#108 =( GEOMETRIC_REPRESENTATION_CONTEXT ( 3 ) GLOBAL_UNCERTAINTY_ASSIGNED_CONTEXT ( ( #30 ) ) GLOBAL_UNIT_ASSIGNED_CONTEXT ( ( #159, #100, #134 ) ) REPRESENTATION_CONTEXT ( 'NONE', 'WORKASPACE' ) );
#109 = VERTEX_POINT ( 'NONE', #73 ) ;
#110 = APPROVAL_ROLE ( '' ) ;
#111 = LINE ( 'NONE', #208, #243 ) ;
#112 = PERSON_AND_ORGANIZATION ( #238, #131 ) ;
#113 = CARTESIAN_POINT ( 'NONE',  ( 0.000000000000000000, 0.000000000000000000, 503.0000000000000000 ) ) ;
#114 = EDGE_CURVE ( 'NONE', #109, #120, #111, .T. ) ;
#115 = APPROVAL_ROLE ( '' ) ;
#116 = CARTESIAN_POINT ( 'NONE',  ( 0.000000000000000000, 0.000000000000000000, 3.000000000000000000 ) ) ;
#117 = APPLICATION_PROTOCOL_DEFINITION ( 'international standard', 'config_control_design', 1994, #139 ) ;
#118 = PRODUCT_DEFINITION ( 'NEZNÁMÝ', '', #45, #200 ) ;
#119 = CIRCLE ( 'NONE', #190, 2.000000000000000000 ) ;
#120 = VERTEX_POINT ( 'NONE', #101 ) ;
#121 = CARTESIAN_POINT ( 'NONE',  ( 0.000000000000000000, 0.000000000000000000, 503.0000000000000000 ) ) ;
#122 = ORIENTED_EDGE ( 'NONE', *, *, #7, .T. ) ;
#123 = DIRECTION ( 'NONE',  ( 0.000000000000000000, 0.000000000000000000, 1.000000000000000000 ) ) ;
#124 = ORIENTED_EDGE ( 'NONE', *, *, #155, .F. ) ;
#125 = DIRECTION ( 'NONE',  ( 1.000000000000000000, 0.000000000000000000, 0.000000000000000000 ) ) ;
#126 = EDGE_LOOP ( 'NONE', ( #54, #212, #248, #64 ) ) ;
#127 = PERSON_AND_ORGANIZATION ( #238, #131 ) ;
#128 = CARTESIAN_POINT ( 'NONE',  ( 0.000000000000000000, 0.000000000000000000, 3.000000000000000000 ) ) ;
#129 = AXIS2_PLACEMENT_3D ( 'NONE', #65, #47, #103 ) ;
#130 = COORDINATED_UNIVERSAL_TIME_OFFSET ( 1, 0, .AHEAD. ) ;
#131 = ORGANIZATION ( 'NEURÈENÝ', 'NEURÈENÝ', '' ) ;
#132 = AXIS2_PLACEMENT_3D ( 'NONE', #224, #56, #215 ) ;
#133 = CC_DESIGN_SECURITY_CLASSIFICATION ( #183, ( #45 ) ) ;
#134 =( NAMED_UNIT ( * ) SI_UNIT ( $, .STERADIAN. ) SOLID_ANGLE_UNIT ( ) );
#135 = PRODUCT ( '852b', '852b', '', ( #4 ) ) ;
#136 = CARTESIAN_POINT ( 'NONE',  ( -2.000000000000000000, 0.000000000000000000, 3.000000000000000000 ) ) ;
#137 = PERSON_AND_ORGANIZATION_ROLE ( 'design_owner' ) ;
#138 = ADVANCED_FACE ( 'NONE', ( #193 ), #151, .T. ) ;
#139 = APPLICATION_CONTEXT ( 'configuration controlled 3d designs of mechanical parts and assemblies' ) ;
#140 = ORIENTED_EDGE ( 'NONE', *, *, #20, .F. ) ;
#141 = DIRECTION ( 'NONE',  ( 1.000000000000000000, 0.000000000000000000, 0.000000000000000000 ) ) ;
#142 = ORIENTED_EDGE ( 'NONE', *, *, #155, .T. ) ;
#143 = DIRECTION ( 'NONE',  ( -0.000000000000000000, -0.000000000000000000, -1.000000000000000000 ) ) ;
#144 = FACE_OUTER_BOUND ( 'NONE', #29, .T. ) ;
#145 = ADVANCED_FACE ( 'NONE', ( #36 ), #81, .T. ) ;
#146 = CARTESIAN_POINT ( 'NONE',  ( 0.000000000000000000, 0.000000000000000000, 0.000000000000000000 ) ) ;
#147 = AXIS2_PLACEMENT_3D ( 'NONE', #146, #67, #125 ) ;
#148 = MANIFOLD_SOLID_BREP ( 'Pøidat vysunutím3', #104 ) ;
#149 = VERTEX_POINT ( 'NONE', #165 ) ;
#150 = CALENDAR_DATE ( 2022, 7, 7 ) ;
#151 = PLANE ( 'NONE',  #24 ) ;
#152 = CC_DESIGN_APPROVAL ( #80, ( #45 ) ) ;
#153 = COORDINATED_UNIVERSAL_TIME_OFFSET ( 1, 0, .AHEAD. ) ;
#154 = AXIS2_PLACEMENT_3D ( 'NONE', #61, #220, #106 ) ;
#155 = EDGE_CURVE ( 'NONE', #242, #149, #196, .T. ) ;
#156 = LOCAL_TIME ( 19, 51, 11.00000000000000000, #130 ) ;
#157 = CIRCLE ( 'NONE', #154, 4.000000000000000000 ) ;
#158 = APPROVAL ( #198, 'NEURÈENÝ' ) ;
#159 =( LENGTH_UNIT ( ) NAMED_UNIT ( * ) SI_UNIT ( .MILLI., .METRE. ) );
#160 = FACE_OUTER_BOUND ( 'NONE', #126, .T. ) ;
#161 = FACE_OUTER_BOUND ( 'NONE', #32, .T. ) ;
#162 = AXIS2_PLACEMENT_3D ( 'NONE', #21, #221, #43 ) ;
#163 = EDGE_CURVE ( 'NONE', #149, #242, #94, .T. ) ;
#164 = EDGE_LOOP ( 'NONE', ( #6, #140, #10, #209 ) ) ;
#165 = CARTESIAN_POINT ( 'NONE',  ( 2.000000000000000000, 2.449293598294706414E-16, 503.0000000000000000 ) ) ;
#166 = EDGE_LOOP ( 'NONE', ( #222, #184, #122, #85 ) ) ;
#167 = PERSON_AND_ORGANIZATION ( #238, #131 ) ;
#168 = FACE_BOUND ( 'NONE', #228, .T. ) ;
#169 = PRODUCT_RELATED_PRODUCT_CATEGORY ( 'detail', '', ( #135 ) ) ;
#170 = CARTESIAN_POINT ( 'NONE',  ( 2.000000000000000000, 2.449293598294706414E-16, 3.000000000000000000 ) ) ;
#171 = PERSON_AND_ORGANIZATION ( #238, #131 ) ;
#172 = CYLINDRICAL_SURFACE ( 'NONE', #58, 4.000000000000000000 ) ;
#173 = SHAPE_DEFINITION_REPRESENTATION ( #97, #82 ) ;
#174 = DATE_TIME_ROLE ( 'creation_date' ) ;
#175 = COORDINATED_UNIVERSAL_TIME_OFFSET ( 1, 0, .AHEAD. ) ;
#176 = CC_DESIGN_PERSON_AND_ORGANIZATION_ASSIGNMENT ( #201, #59, ( #45 ) ) ;
#177 = PLANE ( 'NONE',  #74 ) ;
#178 = CC_DESIGN_DATE_AND_TIME_ASSIGNMENT ( #33, #174, ( #118 ) ) ;
#179 = DIRECTION ( 'NONE',  ( -0.000000000000000000, -0.000000000000000000, -1.000000000000000000 ) ) ;
#180 = CARTESIAN_POINT ( 'NONE',  ( 2.000000000000000000, 2.449293598294706414E-16, 503.0000000000000000 ) ) ;
#181 = CIRCLE ( 'NONE', #89, 4.000000000000000000 ) ;
#182 = LINE ( 'NONE', #83, #219 ) ;
#183 = SECURITY_CLASSIFICATION ( '', '', #93 ) ;
#184 = ORIENTED_EDGE ( 'NONE', *, *, #114, .T. ) ;
#185 = FACE_OUTER_BOUND ( 'NONE', #164, .T. ) ;
#186 = DIRECTION ( 'NONE',  ( 0.000000000000000000, 0.000000000000000000, 1.000000000000000000 ) ) ;
#187 = ADVANCED_FACE ( 'NONE', ( #168, #144 ), #211, .T. ) ;
#188 = ORIENTED_EDGE ( 'NONE', *, *, #236, .F. ) ;
#189 = LINE ( 'NONE', #180, #5 ) ;
#190 = AXIS2_PLACEMENT_3D ( 'NONE', #116, #2, #98 ) ;
#191 = DIRECTION ( 'NONE',  ( 0.000000000000000000, 0.000000000000000000, 1.000000000000000000 ) ) ;
#192 = ORIENTED_EDGE ( 'NONE', *, *, #20, .T. ) ;
#193 = FACE_OUTER_BOUND ( 'NONE', #66, .T. ) ;
#194 = APPROVAL_ROLE ( '' ) ;
#195 = DIRECTION ( 'NONE',  ( -0.000000000000000000, -0.000000000000000000, -1.000000000000000000 ) ) ;
#196 = CIRCLE ( 'NONE', #129, 2.000000000000000000 ) ;
#197 = EDGE_CURVE ( 'NONE', #249, #46, #119, .T. ) ;
#198 = APPROVAL_STATUS ( 'not_yet_approved' ) ;
#199 = LOCAL_TIME ( 19, 51, 11.00000000000000000, #16 ) ;
#200 = DESIGN_CONTEXT ( 'detailed design', #78, 'design' ) ;
#201 = PERSON_AND_ORGANIZATION ( #238, #131 ) ;
#202 = EDGE_CURVE ( 'NONE', #25, #120, #157, .T. ) ;
#203 = CC_DESIGN_PERSON_AND_ORGANIZATION_ASSIGNMENT ( #72, #57, ( #118 ) ) ;
#204 = LOCAL_TIME ( 19, 51, 11.00000000000000000, #153 ) ;
#205 = DIRECTION ( 'NONE',  ( 0.000000000000000000, 0.000000000000000000, 1.000000000000000000 ) ) ;
#206 = CARTESIAN_POINT ( 'NONE',  ( -2.000000000000000000, 0.000000000000000000, 503.0000000000000000 ) ) ;
#207 = APPLICATION_PROTOCOL_DEFINITION ( 'international standard', 'config_control_design', 1994, #78 ) ;
#208 = CARTESIAN_POINT ( 'NONE',  ( 4.000000000000000000, 4.898587196589412829E-16, 3.000000000000000000 ) ) ;
#209 = ORIENTED_EDGE ( 'NONE', *, *, #202, .T. ) ;
#210 = DIRECTION ( 'NONE',  ( 0.000000000000000000, 0.000000000000000000, 1.000000000000000000 ) ) ;
#211 = PLANE ( 'NONE',  #62 ) ;
#212 = ORIENTED_EDGE ( 'NONE', *, *, #236, .T. ) ;
#213 = DIRECTION ( 'NONE',  ( -1.000000000000000000, 0.000000000000000000, 0.000000000000000000 ) ) ;
#214 = CALENDAR_DATE ( 2022, 7, 7 ) ;
#215 = DIRECTION ( 'NONE',  ( -1.000000000000000000, 0.000000000000000000, 0.000000000000000000 ) ) ;
#216 = DATE_AND_TIME ( #37, #204 ) ;
#217 = CIRCLE ( 'NONE', #147, 4.000000000000000000 ) ;
#218 = DATE_AND_TIME ( #92, #232 ) ;
#219 = VECTOR ( 'NONE', #143, 1000.000000000000000 ) ;
#220 = DIRECTION ( 'NONE',  ( 0.000000000000000000, 0.000000000000000000, 1.000000000000000000 ) ) ;
#221 = DIRECTION ( 'NONE',  ( 0.000000000000000000, 0.000000000000000000, 1.000000000000000000 ) ) ;
#222 = ORIENTED_EDGE ( 'NONE', *, *, #90, .F. ) ;
#223 = APPROVAL_PERSON_ORGANIZATION ( #112, #158, #194 ) ;
#224 = CARTESIAN_POINT ( 'NONE',  ( 0.000000000000000000, 0.000000000000000000, 3.000000000000000000 ) ) ;
#225 = EDGE_LOOP ( 'NONE', ( #188, #124, #68, #13 ) ) ;
#226 = APPROVAL ( #247, 'NEURÈENÝ' ) ;
#227 = DIRECTION ( 'NONE',  ( 1.000000000000000000, 0.000000000000000000, 0.000000000000000000 ) ) ;
#228 = EDGE_LOOP ( 'NONE', ( #79, #11 ) ) ;
#229 = DIRECTION ( 'NONE',  ( 0.000000000000000000, 0.000000000000000000, 1.000000000000000000 ) ) ;
#230 = EDGE_CURVE ( 'NONE', #105, #25, #182, .T. ) ;
#231 = APPROVAL_DATE_TIME ( #91, #80 ) ;
#232 = LOCAL_TIME ( 19, 51, 11.00000000000000000, #35 ) ;
#233 = CARTESIAN_POINT ( 'NONE',  ( -4.000000000000000000, 0.000000000000000000, 0.000000000000000000 ) ) ;
#234 = EDGE_CURVE ( 'NONE', #242, #249, #9, .T. ) ;
#235 = CALENDAR_DATE ( 2022, 7, 7 ) ;
#236 = EDGE_CURVE ( 'NONE', #149, #46, #189, .T. ) ;
#237 = DIRECTION ( 'NONE',  ( -1.000000000000000000, 0.000000000000000000, 0.000000000000000000 ) ) ;
#238 = PERSON ( 'NEURÈENÝ', 'NEURÈENÝ', 'NEURÈENÝ', ('NEURÈENÝ'), ('NEURÈENÝ'), ('NEURÈENÝ') ) ;
#239 = ADVANCED_FACE ( 'NONE', ( #161 ), #177, .F. ) ;
#240 = AXIS2_PLACEMENT_3D ( 'NONE', #121, #210, #227 ) ;
#241 = CC_DESIGN_PERSON_AND_ORGANIZATION_ASSIGNMENT ( #15, #255, ( #183 ) ) ;
#242 = VERTEX_POINT ( 'NONE', #42 ) ;
#243 = VECTOR ( 'NONE', #70, 1000.000000000000000 ) ;
#244 = CARTESIAN_POINT ( 'NONE',  ( 0.000000000000000000, 0.000000000000000000, 503.0000000000000000 ) ) ;
#245 = ORIENTED_EDGE ( 'NONE', *, *, #163, .T. ) ;
#246 = APPROVAL_PERSON_ORGANIZATION ( #127, #80, #115 ) ;
#247 = APPROVAL_STATUS ( 'not_yet_approved' ) ;
#248 = ORIENTED_EDGE ( 'NONE', *, *, #19, .T. ) ;
#249 = VERTEX_POINT ( 'NONE', #136 ) ;
#250 = DIRECTION ( 'NONE',  ( 0.000000000000000000, 0.000000000000000000, 1.000000000000000000 ) ) ;
#251 = CARTESIAN_POINT ( 'NONE',  ( 0.000000000000000000, 0.000000000000000000, 3.000000000000000000 ) ) ;
#252 = CC_DESIGN_APPROVAL ( #226, ( #118 ) ) ;
#253 = APPROVAL_DATE_TIME ( #216, #158 ) ;
#254 = ADVANCED_FACE ( 'NONE', ( #160 ), #44, .T. ) ;
#255 = PERSON_AND_ORGANIZATION_ROLE ( 'classification_officer' ) ;
ENDSEC;
END-ISO-10303-21;
