ISO-10303-21;
HEADER;
FILE_DESCRIPTION (( 'STEP AP203' ),
    '1' );
FILE_NAME ('aba9.STEP',
    '2023-02-13T15:49:49',
    ( '' ),
    ( '' ),
    'SwSTEP 2.0',
    'SolidWorks 2019',
    '' );
FILE_SCHEMA (( 'CONFIG_CONTROL_DESIGN' ));
ENDSEC;

DATA;
#1 = FACE_OUTER_BOUND ( 'NONE', #8, .T. ) ;
#2 = APPROVAL_ROLE ( '' ) ;
#3 = APPROVAL ( #99, 'NEURÈENÝ' ) ;
#4 = APPLICATION_PROTOCOL_DEFINITION ( 'international standard', 'config_control_design', 1994, #97 ) ;
#5 = PERSON_AND_ORGANIZATION ( #109, #47 ) ;
#6 =( LENGTH_UNIT ( ) NAMED_UNIT ( * ) SI_UNIT ( .MILLI., .METRE. ) );
#7 = EDGE_CURVE ( 'NONE', #105, #143, #135, .T. ) ;
#8 = EDGE_LOOP ( 'NONE', ( #175, #196, #158, #224 ) ) ;
#9 = ORIENTED_EDGE ( 'NONE', *, *, #199, .F. ) ;
#10 = EDGE_LOOP ( 'NONE', ( #145, #106 ) ) ;
#11 = DIRECTION ( 'NONE',  ( 0.000000000000000000, 0.000000000000000000, 1.000000000000000000 ) ) ;
#12 = CARTESIAN_POINT ( 'NONE',  ( 0.000000000000000000, 0.000000000000000000, 0.000000000000000000 ) ) ;
#13 = DIRECTION ( 'NONE',  ( -1.000000000000000000, 0.000000000000000000, 0.000000000000000000 ) ) ;
#14 = PRODUCT_DEFINITION ( 'NEZNÁMÝ', '', #204, #125 ) ;
#15 = DIRECTION ( 'NONE',  ( -1.000000000000000000, 0.000000000000000000, 0.000000000000000000 ) ) ;
#16 = LINE ( 'NONE', #107, #198 ) ;
#17 = CYLINDRICAL_SURFACE ( 'NONE', #24, 2.500000000000000000 ) ;
#18 = CARTESIAN_POINT ( 'NONE',  ( 5.000000000000000000, 6.123233995736766282E-16, 3.000000000000000000 ) ) ;
#19 = AXIS2_PLACEMENT_3D ( 'NONE', #225, #113, #74 ) ;
#20 = CC_DESIGN_PERSON_AND_ORGANIZATION_ASSIGNMENT ( #211, #255, ( #204 ) ) ;
#21 = VECTOR ( 'NONE', #203, 1000.000000000000000 ) ;
#22 =( NAMED_UNIT ( * ) PLANE_ANGLE_UNIT ( ) SI_UNIT ( $, .RADIAN. ) );
#23 = APPROVAL_ROLE ( '' ) ;
#24 = AXIS2_PLACEMENT_3D ( 'NONE', #209, #42, #165 ) ;
#25 = ADVANCED_FACE ( 'NONE', ( #160 ), #241, .T. ) ;
#26 = VERTEX_POINT ( 'NONE', #200 ) ;
#27 = APPROVAL_STATUS ( 'not_yet_approved' ) ;
#28 = DIRECTION ( 'NONE',  ( 0.000000000000000000, 0.000000000000000000, 1.000000000000000000 ) ) ;
#29 = CARTESIAN_POINT ( 'NONE',  ( 0.000000000000000000, 0.000000000000000000, 500.0000000000000000 ) ) ;
#30 = AXIS2_PLACEMENT_3D ( 'NONE', #103, #53, #220 ) ;
#31 = LOCAL_TIME ( 16, 49, 49.00000000000000000, #132 ) ;
#32 = ORIENTED_EDGE ( 'NONE', *, *, #199, .T. ) ;
#33 = CARTESIAN_POINT ( 'NONE',  ( 0.000000000000000000, 0.000000000000000000, 500.0000000000000000 ) ) ;
#34 = DIRECTION ( 'NONE',  ( 1.000000000000000000, 0.000000000000000000, -0.000000000000000000 ) ) ;
#35 = EDGE_CURVE ( 'NONE', #26, #71, #96, .T. ) ;
#36 = DIRECTION ( 'NONE',  ( 0.000000000000000000, 0.000000000000000000, 1.000000000000000000 ) ) ;
#37 = PERSON_AND_ORGANIZATION ( #109, #47 ) ;
#38 = LINE ( 'NONE', #152, #173 ) ;
#39 = CC_DESIGN_DATE_AND_TIME_ASSIGNMENT ( #90, #166, ( #85 ) ) ;
#40 = FACE_OUTER_BOUND ( 'NONE', #197, .T. ) ;
#41 = CIRCLE ( 'NONE', #19, 5.000000000000000000 ) ;
#42 = DIRECTION ( 'NONE',  ( -0.000000000000000000, -0.000000000000000000, -1.000000000000000000 ) ) ;
#43 = DATE_AND_TIME ( #250, #228 ) ;
#44 = SECURITY_CLASSIFICATION_LEVEL ( 'unclassified' ) ;
#45 = CARTESIAN_POINT ( 'NONE',  ( 0.000000000000000000, 0.000000000000000000, 0.000000000000000000 ) ) ;
#46 = CALENDAR_DATE ( 2023, 13, 2 ) ;
#47 = ORGANIZATION ( 'NEURÈENÝ', 'NEURÈENÝ', '' ) ;
#48 = ORIENTED_EDGE ( 'NONE', *, *, #233, .F. ) ;
#49 = CC_DESIGN_PERSON_AND_ORGANIZATION_ASSIGNMENT ( #37, #87, ( #85 ) ) ;
#50 = ORIENTED_EDGE ( 'NONE', *, *, #7, .F. ) ;
#51 = CARTESIAN_POINT ( 'NONE',  ( 0.000000000000000000, 0.000000000000000000, 500.0000000000000000 ) ) ;
#52 = CIRCLE ( 'NONE', #147, 5.000000000000000000 ) ;
#53 = DIRECTION ( 'NONE',  ( 0.000000000000000000, 0.000000000000000000, 1.000000000000000000 ) ) ;
#54 = EDGE_CURVE ( 'NONE', #143, #105, #77, .T. ) ;
#55 = CARTESIAN_POINT ( 'NONE',  ( 0.000000000000000000, 0.000000000000000000, 500.0000000000000000 ) ) ;
#56 = CARTESIAN_POINT ( 'NONE',  ( 0.000000000000000000, 0.000000000000000000, 3.000000000000000000 ) ) ;
#57 = CALENDAR_DATE ( 2023, 13, 2 ) ;
#58 = LOCAL_TIME ( 16, 49, 49.00000000000000000, #137 ) ;
#59 = CARTESIAN_POINT ( 'NONE',  ( -5.000000000000000000, 0.000000000000000000, 3.000000000000000000 ) ) ;
#60 = CARTESIAN_POINT ( 'NONE',  ( 0.000000000000000000, 0.000000000000000000, 3.000000000000000000 ) ) ;
#61 = PRODUCT_DEFINITION_SHAPE ( 'NONE', 'NONE',  #14 ) ;
#62 = FACE_OUTER_BOUND ( 'NONE', #104, .T. ) ;
#63 = EDGE_CURVE ( 'NONE', #71, #26, #52, .T. ) ;
#64 = APPROVAL_PERSON_ORGANIZATION ( #5, #3, #2 ) ;
#65 = PERSON_AND_ORGANIZATION ( #109, #47 ) ;
#66 = LOCAL_TIME ( 16, 49, 49.00000000000000000, #162 ) ;
#67 = VERTEX_POINT ( 'NONE', #153 ) ;
#68 = VERTEX_POINT ( 'NONE', #201 ) ;
#69 = ORIENTED_EDGE ( 'NONE', *, *, #54, .F. ) ;
#70 = EDGE_CURVE ( 'NONE', #143, #67, #16, .T. ) ;
#71 = VERTEX_POINT ( 'NONE', #182 ) ;
#72 = DIRECTION ( 'NONE',  ( 0.000000000000000000, 0.000000000000000000, 1.000000000000000000 ) ) ;
#73 = DIRECTION ( 'NONE',  ( 1.000000000000000000, 0.000000000000000000, 0.000000000000000000 ) ) ;
#74 = DIRECTION ( 'NONE',  ( 1.000000000000000000, 0.000000000000000000, 0.000000000000000000 ) ) ;
#75 = CALENDAR_DATE ( 2023, 13, 2 ) ;
#76 = FACE_OUTER_BOUND ( 'NONE', #120, .T. ) ;
#77 = CIRCLE ( 'NONE', #167, 2.500000000000000000 ) ;
#78 = ADVANCED_FACE ( 'NONE', ( #76 ), #92, .T. ) ;
#79 = DIRECTION ( 'NONE',  ( 1.000000000000000000, 0.000000000000000000, 0.000000000000000000 ) ) ;
#80 = AXIS2_PLACEMENT_3D ( 'NONE', #169, #131, #252 ) ;
#81 = EDGE_LOOP ( 'NONE', ( #178, #50, #245, #118 ) ) ;
#82 = EDGE_LOOP ( 'NONE', ( #159, #32 ) ) ;
#83 = ADVANCED_FACE ( 'NONE', ( #62 ), #227, .F. ) ;
#84 = CIRCLE ( 'NONE', #80, 2.500000000000000000 ) ;
#85 = SECURITY_CLASSIFICATION ( '', '', #44 ) ;
#86 = CARTESIAN_POINT ( 'NONE',  ( -5.000000000000000000, 0.000000000000000000, 3.000000000000000000 ) ) ;
#87 = PERSON_AND_ORGANIZATION_ROLE ( 'classification_officer' ) ;
#88 = CC_DESIGN_PERSON_AND_ORGANIZATION_ASSIGNMENT ( #95, #155, ( #204 ) ) ;
#89 = DIRECTION ( 'NONE',  ( 0.000000000000000000, 0.000000000000000000, 1.000000000000000000 ) ) ;
#90 = DATE_AND_TIME ( #57, #136 ) ;
#91 = DIRECTION ( 'NONE',  ( 1.000000000000000000, 0.000000000000000000, -0.000000000000000000 ) ) ;
#92 = CYLINDRICAL_SURFACE ( 'NONE', #238, 5.000000000000000000 ) ;
#93 = PERSON_AND_ORGANIZATION ( #109, #47 ) ;
#94 = FACE_BOUND ( 'NONE', #219, .T. ) ;
#95 = PERSON_AND_ORGANIZATION ( #109, #47 ) ;
#96 = CIRCLE ( 'NONE', #30, 5.000000000000000000 ) ;
#97 = APPLICATION_CONTEXT ( 'configuration controlled 3d designs of mechanical parts and assemblies' ) ;
#98 = APPROVAL_PERSON_ORGANIZATION ( #93, #123, #230 ) ;
#99 = APPROVAL_STATUS ( 'not_yet_approved' ) ;
#100 = CIRCLE ( 'NONE', #208, 2.500000000000000000 ) ;
#101 = ORIENTED_EDGE ( 'NONE', *, *, #35, .F. ) ;
#102 = CC_DESIGN_PERSON_AND_ORGANIZATION_ASSIGNMENT ( #65, #239, ( #127 ) ) ;
#103 = CARTESIAN_POINT ( 'NONE',  ( 0.000000000000000000, 0.000000000000000000, 0.000000000000000000 ) ) ;
#104 = EDGE_LOOP ( 'NONE', ( #142, #101 ) ) ;
#105 = VERTEX_POINT ( 'NONE', #133 ) ;
#106 = ORIENTED_EDGE ( 'NONE', *, *, #54, .T. ) ;
#107 = CARTESIAN_POINT ( 'NONE',  ( 2.500000000000000000, 3.061616997868382648E-16, 500.0000000000000000 ) ) ;
#108 = CC_DESIGN_PERSON_AND_ORGANIZATION_ASSIGNMENT ( #226, #235, ( #14 ) ) ;
#109 = PERSON ( 'NEURÈENÝ', 'NEURÈENÝ', 'NEURÈENÝ', ('NEURÈENÝ'), ('NEURÈENÝ'), ('NEURÈENÝ') ) ;
#110 = DIRECTION ( 'NONE',  ( -0.000000000000000000, -0.000000000000000000, -1.000000000000000000 ) ) ;
#111 = DATE_TIME_ROLE ( 'creation_date' ) ;
#112 = DIRECTION ( 'NONE',  ( -1.000000000000000000, 0.000000000000000000, 0.000000000000000000 ) ) ;
#113 = DIRECTION ( 'NONE',  ( 0.000000000000000000, 0.000000000000000000, 1.000000000000000000 ) ) ;
#114 = FACE_OUTER_BOUND ( 'NONE', #81, .T. ) ;
#115 = APPROVAL_DATE_TIME ( #43, #123 ) ;
#116 = DIRECTION ( 'NONE',  ( 0.000000000000000000, 0.000000000000000000, 1.000000000000000000 ) ) ;
#117 = APPROVAL_PERSON_ORGANIZATION ( #191, #172, #23 ) ;
#118 = ORIENTED_EDGE ( 'NONE', *, *, #138, .T. ) ;
#119 = ADVANCED_FACE ( 'NONE', ( #40 ), #17, .T. ) ;
#120 = EDGE_LOOP ( 'NONE', ( #9, #161, #149, #48 ) ) ;
#121 = APPLICATION_CONTEXT ( 'configuration controlled 3d designs of mechanical parts and assemblies' ) ;
#122 = DATE_AND_TIME ( #144, #66 ) ;
#123 = APPROVAL ( #184, 'NEURÈENÝ' ) ;
#124 = ORIENTED_EDGE ( 'NONE', *, *, #210, .F. ) ;
#125 = DESIGN_CONTEXT ( 'detailed design', #121, 'design' ) ;
#126 = DIRECTION ( 'NONE',  ( 0.000000000000000000, 0.000000000000000000, 1.000000000000000000 ) ) ;
#127 = PRODUCT ( 'aba9', 'aba9', '', ( #236 ) ) ;
#128 = CARTESIAN_POINT ( 'NONE',  ( -2.500000000000000000, 0.000000000000000000, 500.0000000000000000 ) ) ;
#129 = FACE_OUTER_BOUND ( 'NONE', #82, .T. ) ;
#130 = CC_DESIGN_APPROVAL ( #123, ( #204 ) ) ;
#131 = DIRECTION ( 'NONE',  ( 0.000000000000000000, 0.000000000000000000, 1.000000000000000000 ) ) ;
#132 = COORDINATED_UNIVERSAL_TIME_OFFSET ( 1, 0, .AHEAD. ) ;
#133 = CARTESIAN_POINT ( 'NONE',  ( -2.500000000000000000, 0.000000000000000000, 500.0000000000000000 ) ) ;
#134 = AXIS2_PLACEMENT_3D ( 'NONE', #150, #89, #34 ) ;
#135 = CIRCLE ( 'NONE', #202, 2.500000000000000000 ) ;
#136 = LOCAL_TIME ( 16, 49, 49.00000000000000000, #247 ) ;
#137 = COORDINATED_UNIVERSAL_TIME_OFFSET ( 1, 0, .AHEAD. ) ;
#138 = EDGE_CURVE ( 'NONE', #68, #67, #84, .T. ) ;
#139 = APPLICATION_PROTOCOL_DEFINITION ( 'international standard', 'config_control_design', 1994, #121 ) ;
#140 = AXIS2_PLACEMENT_3D ( 'NONE', #45, #116, #79 ) ;
#141 = CC_DESIGN_SECURITY_CLASSIFICATION ( #85, ( #204 ) ) ;
#142 = ORIENTED_EDGE ( 'NONE', *, *, #63, .F. ) ;
#143 = VERTEX_POINT ( 'NONE', #164 ) ;
#144 = CALENDAR_DATE ( 2023, 13, 2 ) ;
#145 = ORIENTED_EDGE ( 'NONE', *, *, #7, .T. ) ;
#146 = AXIS2_PLACEMENT_3D ( 'NONE', #206, #168, #13 ) ;
#147 = AXIS2_PLACEMENT_3D ( 'NONE', #12, #72, #183 ) ;
#148 = ORIENTED_EDGE ( 'NONE', *, *, #70, .T. ) ;
#149 = ORIENTED_EDGE ( 'NONE', *, *, #35, .T. ) ;
#150 = CARTESIAN_POINT ( 'NONE',  ( 0.000000000000000000, 0.000000000000000000, 3.000000000000000000 ) ) ;
#151 = LINE ( 'NONE', #59, #192 ) ;
#152 = CARTESIAN_POINT ( 'NONE',  ( 5.000000000000000000, 6.123233995736766282E-16, 3.000000000000000000 ) ) ;
#153 = CARTESIAN_POINT ( 'NONE',  ( 2.500000000000000000, 3.061616997868382648E-16, 3.000000000000000000 ) ) ;
#154 = DIRECTION ( 'NONE',  ( 0.000000000000000000, 0.000000000000000000, 1.000000000000000000 ) ) ;
#155 = PERSON_AND_ORGANIZATION_ROLE ( 'creator' ) ;
#156 = MANIFOLD_SOLID_BREP ( 'Pøidat vysunutím3', #251 ) ;
#157 = ADVANCED_FACE ( 'NONE', ( #114 ), #248, .T. ) ;
#158 = ORIENTED_EDGE ( 'NONE', *, *, #233, .T. ) ;
#159 = ORIENTED_EDGE ( 'NONE', *, *, #240, .T. ) ;
#160 = FACE_OUTER_BOUND ( 'NONE', #10, .T. ) ;
#161 = ORIENTED_EDGE ( 'NONE', *, *, #218, .T. ) ;
#162 = COORDINATED_UNIVERSAL_TIME_OFFSET ( 1, 0, .AHEAD. ) ;
#163 = EDGE_CURVE ( 'NONE', #105, #68, #188, .T. ) ;
#164 = CARTESIAN_POINT ( 'NONE',  ( 2.500000000000000000, 3.061616997868382648E-16, 500.0000000000000000 ) ) ;
#165 = DIRECTION ( 'NONE',  ( -1.000000000000000000, 0.000000000000000000, 0.000000000000000000 ) ) ;
#166 = DATE_TIME_ROLE ( 'classification_date' ) ;
#167 = AXIS2_PLACEMENT_3D ( 'NONE', #51, #126, #180 ) ;
#168 = DIRECTION ( 'NONE',  ( -0.000000000000000000, -0.000000000000000000, -1.000000000000000000 ) ) ;
#169 = CARTESIAN_POINT ( 'NONE',  ( 0.000000000000000000, 0.000000000000000000, 3.000000000000000000 ) ) ;
#170 = COORDINATED_UNIVERSAL_TIME_OFFSET ( 1, 0, .AHEAD. ) ;
#171 = PLANE ( 'NONE',  #134 ) ;
#172 = APPROVAL ( #27, 'NEURÈENÝ' ) ;
#173 = VECTOR ( 'NONE', #110, 1000.000000000000000 ) ;
#174 = DIRECTION ( 'NONE',  ( 1.000000000000000000, 0.000000000000000000, 0.000000000000000000 ) ) ;
#175 = ORIENTED_EDGE ( 'NONE', *, *, #218, .F. ) ;
#176 = CC_DESIGN_DATE_AND_TIME_ASSIGNMENT ( #253, #111, ( #14 ) ) ;
#177 = ORIENTED_EDGE ( 'NONE', *, *, #210, .T. ) ;
#178 = ORIENTED_EDGE ( 'NONE', *, *, #70, .F. ) ;
#179 = VERTEX_POINT ( 'NONE', #18 ) ;
#180 = DIRECTION ( 'NONE',  ( 1.000000000000000000, 0.000000000000000000, 0.000000000000000000 ) ) ;
#181 = ADVANCED_FACE ( 'NONE', ( #94, #129 ), #171, .T. ) ;
#182 = CARTESIAN_POINT ( 'NONE',  ( -5.000000000000000000, 0.000000000000000000, 0.000000000000000000 ) ) ;
#183 = DIRECTION ( 'NONE',  ( 1.000000000000000000, 0.000000000000000000, 0.000000000000000000 ) ) ;
#184 = APPROVAL_STATUS ( 'not_yet_approved' ) ;
#185 = DIRECTION ( 'NONE',  ( -0.000000000000000000, -0.000000000000000000, -1.000000000000000000 ) ) ;
#186 = AXIS2_PLACEMENT_3D ( 'NONE', #207, #154, #91 ) ;
#187 = CARTESIAN_POINT ( 'NONE',  ( 0.000000000000000000, 0.000000000000000000, 3.000000000000000000 ) ) ;
#188 = LINE ( 'NONE', #128, #21 ) ;
#189 = DIRECTION ( 'NONE',  ( 0.000000000000000000, 0.000000000000000000, 1.000000000000000000 ) ) ;
#190 = ADVANCED_FACE ( 'NONE', ( #1 ), #246, .T. ) ;
#191 = PERSON_AND_ORGANIZATION ( #109, #47 ) ;
#192 = VECTOR ( 'NONE', #229, 1000.000000000000000 ) ;
#193 = AXIS2_PLACEMENT_3D ( 'NONE', #29, #11, #242 ) ;
#194 = CC_DESIGN_APPROVAL ( #172, ( #14 ) ) ;
#195 = VERTEX_POINT ( 'NONE', #86 ) ;
#196 = ORIENTED_EDGE ( 'NONE', *, *, #240, .F. ) ;
#197 = EDGE_LOOP ( 'NONE', ( #69, #148, #177, #217 ) ) ;
#198 = VECTOR ( 'NONE', #231, 1000.000000000000000 ) ;
#199 = EDGE_CURVE ( 'NONE', #179, #195, #41, .T. ) ;
#200 = CARTESIAN_POINT ( 'NONE',  ( 5.000000000000000000, 6.123233995736766282E-16, 0.000000000000000000 ) ) ;
#201 = CARTESIAN_POINT ( 'NONE',  ( -2.500000000000000000, 0.000000000000000000, 3.000000000000000000 ) ) ;
#202 = AXIS2_PLACEMENT_3D ( 'NONE', #33, #28, #223 ) ;
#203 = DIRECTION ( 'NONE',  ( -0.000000000000000000, -0.000000000000000000, -1.000000000000000000 ) ) ;
#204 = PRODUCT_DEFINITION_FORMATION_WITH_SPECIFIED_SOURCE ( 'LIBOVOLNÝ', '', #127, .NOT_KNOWN. ) ;
#205 = APPROVAL_DATE_TIME ( #122, #172 ) ;
#206 = CARTESIAN_POINT ( 'NONE',  ( 0.000000000000000000, 0.000000000000000000, 3.000000000000000000 ) ) ;
#207 = CARTESIAN_POINT ( 'NONE',  ( 0.000000000000000000, 0.000000000000000000, 0.000000000000000000 ) ) ;
#208 = AXIS2_PLACEMENT_3D ( 'NONE', #56, #36, #73 ) ;
#209 = CARTESIAN_POINT ( 'NONE',  ( 0.000000000000000000, 0.000000000000000000, 500.0000000000000000 ) ) ;
#210 = EDGE_CURVE ( 'NONE', #67, #68, #100, .T. ) ;
#211 = PERSON_AND_ORGANIZATION ( #109, #47 ) ;
#212 = ADVANCED_BREP_SHAPE_REPRESENTATION ( 'aba9', ( #156, #140 ), #216 ) ;
#213 = APPROVAL_DATE_TIME ( #215, #3 ) ;
#214 = SHAPE_DEFINITION_REPRESENTATION ( #61, #212 ) ;
#215 = DATE_AND_TIME ( #46, #58 ) ;
#216 =( GEOMETRIC_REPRESENTATION_CONTEXT ( 3 ) GLOBAL_UNCERTAINTY_ASSIGNED_CONTEXT ( ( #221 ) ) GLOBAL_UNIT_ASSIGNED_CONTEXT ( ( #6, #22, #234 ) ) REPRESENTATION_CONTEXT ( 'NONE', 'WORKASPACE' ) );
#217 = ORIENTED_EDGE ( 'NONE', *, *, #163, .F. ) ;
#218 = EDGE_CURVE ( 'NONE', #179, #26, #38, .T. ) ;
#219 = EDGE_LOOP ( 'NONE', ( #244, #124 ) ) ;
#220 = DIRECTION ( 'NONE',  ( 1.000000000000000000, 0.000000000000000000, 0.000000000000000000 ) ) ;
#221 = UNCERTAINTY_MEASURE_WITH_UNIT (LENGTH_MEASURE( 1.000000000000000082E-05 ), #6, 'distance_accuracy_value', 'NONE');
#222 = CC_DESIGN_APPROVAL ( #3, ( #85 ) ) ;
#223 = DIRECTION ( 'NONE',  ( 1.000000000000000000, 0.000000000000000000, 0.000000000000000000 ) ) ;
#224 = ORIENTED_EDGE ( 'NONE', *, *, #63, .T. ) ;
#225 = CARTESIAN_POINT ( 'NONE',  ( 0.000000000000000000, 0.000000000000000000, 3.000000000000000000 ) ) ;
#226 = PERSON_AND_ORGANIZATION ( #109, #47 ) ;
#227 = PLANE ( 'NONE',  #186 ) ;
#228 = LOCAL_TIME ( 16, 49, 49.00000000000000000, #170 ) ;
#229 = DIRECTION ( 'NONE',  ( -0.000000000000000000, -0.000000000000000000, -1.000000000000000000 ) ) ;
#230 = APPROVAL_ROLE ( '' ) ;
#231 = DIRECTION ( 'NONE',  ( -0.000000000000000000, -0.000000000000000000, -1.000000000000000000 ) ) ;
#232 = AXIS2_PLACEMENT_3D ( 'NONE', #187, #189, #174 ) ;
#233 = EDGE_CURVE ( 'NONE', #195, #71, #151, .T. ) ;
#234 =( NAMED_UNIT ( * ) SI_UNIT ( $, .STERADIAN. ) SOLID_ANGLE_UNIT ( ) );
#235 = PERSON_AND_ORGANIZATION_ROLE ( 'creator' ) ;
#236 = MECHANICAL_CONTEXT ( 'NONE', #97, 'mechanical' ) ;
#237 = PRODUCT_RELATED_PRODUCT_CATEGORY ( 'detail', '', ( #127 ) ) ;
#238 = AXIS2_PLACEMENT_3D ( 'NONE', #60, #185, #15 ) ;
#239 = PERSON_AND_ORGANIZATION_ROLE ( 'design_owner' ) ;
#240 = EDGE_CURVE ( 'NONE', #195, #179, #243, .T. ) ;
#241 = PLANE ( 'NONE',  #193 ) ;
#242 = DIRECTION ( 'NONE',  ( 1.000000000000000000, 0.000000000000000000, -0.000000000000000000 ) ) ;
#243 = CIRCLE ( 'NONE', #232, 5.000000000000000000 ) ;
#244 = ORIENTED_EDGE ( 'NONE', *, *, #138, .F. ) ;
#245 = ORIENTED_EDGE ( 'NONE', *, *, #163, .T. ) ;
#246 = CYLINDRICAL_SURFACE ( 'NONE', #146, 5.000000000000000000 ) ;
#247 = COORDINATED_UNIVERSAL_TIME_OFFSET ( 1, 0, .AHEAD. ) ;
#248 = CYLINDRICAL_SURFACE ( 'NONE', #249, 2.500000000000000000 ) ;
#249 = AXIS2_PLACEMENT_3D ( 'NONE', #55, #254, #112 ) ;
#250 = CALENDAR_DATE ( 2023, 13, 2 ) ;
#251 = CLOSED_SHELL ( 'NONE', ( #119, #78, #190, #181, #83, #157, #25 ) ) ;
#252 = DIRECTION ( 'NONE',  ( 1.000000000000000000, 0.000000000000000000, 0.000000000000000000 ) ) ;
#253 = DATE_AND_TIME ( #75, #31 ) ;
#254 = DIRECTION ( 'NONE',  ( -0.000000000000000000, -0.000000000000000000, -1.000000000000000000 ) ) ;
#255 = PERSON_AND_ORGANIZATION_ROLE ( 'design_supplier' ) ;
ENDSEC;
END-ISO-10303-21;
