ISO-10303-21;
HEADER;
FILE_DESCRIPTION (( 'STEP AP203' ),
    '1' );
FILE_NAME ('4911.STEP',
    '2022-07-07T17:24:19',
    ( '' ),
    ( '' ),
    'SwSTEP 2.0',
    'SolidWorks 2019',
    '' );
FILE_SCHEMA (( 'CONFIG_CONTROL_DESIGN' ));
ENDSEC;

DATA;
#1 = EDGE_LOOP ( 'NONE', ( #69, #50, #102, #239 ) ) ;
#2 = SECURITY_CLASSIFICATION ( '', '', #66 ) ;
#3 = AXIS2_PLACEMENT_3D ( 'NONE', #191, #250, #173 ) ;
#4 = PERSON_AND_ORGANIZATION ( #220, #160 ) ;
#5 = AXIS2_PLACEMENT_3D ( 'NONE', #245, #28, #139 ) ;
#6 = APPROVAL_STATUS ( 'not_yet_approved' ) ;
#7 = FACE_OUTER_BOUND ( 'NONE', #180, .T. ) ;
#8 = CARTESIAN_POINT ( 'NONE',  ( 5.250000000000000000, 6.429395695523604153E-16, 255.0000000000000000 ) ) ;
#9 = ORIENTED_EDGE ( 'NONE', *, *, #218, .F. ) ;
#10 = CYLINDRICAL_SURFACE ( 'NONE', #41, 5.250000000000000000 ) ;
#11 = FACE_OUTER_BOUND ( 'NONE', #167, .T. ) ;
#12 = FACE_OUTER_BOUND ( 'NONE', #60, .T. ) ;
#13 = VERTEX_POINT ( 'NONE', #46 ) ;
#14 = COORDINATED_UNIVERSAL_TIME_OFFSET ( 1, 0, .AHEAD. ) ;
#15 = CALENDAR_DATE ( 2022, 7, 7 ) ;
#16 = VERTEX_POINT ( 'NONE', #89 ) ;
#17 = CC_DESIGN_PERSON_AND_ORGANIZATION_ASSIGNMENT ( #4, #242, ( #44 ) ) ;
#18 = AXIS2_PLACEMENT_3D ( 'NONE', #205, #86, #71 ) ;
#19 = LOCAL_TIME ( 19, 24, 19.00000000000000000, #54 ) ;
#20 = APPROVAL ( #6, 'NEURÈENÝ' ) ;
#21 = CALENDAR_DATE ( 2022, 7, 7 ) ;
#22 = PRODUCT_DEFINITION ( 'NEZNÁMÝ', '', #44, #164 ) ;
#23 = CARTESIAN_POINT ( 'NONE',  ( -8.000000000000000000, 0.000000000000000000, 0.000000000000000000 ) ) ;
#24 = DIRECTION ( 'NONE',  ( 0.000000000000000000, 0.000000000000000000, 1.000000000000000000 ) ) ;
#25 = CARTESIAN_POINT ( 'NONE',  ( 0.000000000000000000, 0.000000000000000000, 5.000000000000000000 ) ) ;
#26 = VERTEX_POINT ( 'NONE', #192 ) ;
#27 = AXIS2_PLACEMENT_3D ( 'NONE', #243, #137, #134 ) ;
#28 = DIRECTION ( 'NONE',  ( -0.000000000000000000, -0.000000000000000000, -1.000000000000000000 ) ) ;
#29 = DIRECTION ( 'NONE',  ( 0.000000000000000000, 0.000000000000000000, 1.000000000000000000 ) ) ;
#30 = DIRECTION ( 'NONE',  ( -0.000000000000000000, -0.000000000000000000, -1.000000000000000000 ) ) ;
#31 = CARTESIAN_POINT ( 'NONE',  ( -5.250000000000000000, 0.000000000000000000, 255.0000000000000000 ) ) ;
#32 = DATE_TIME_ROLE ( 'classification_date' ) ;
#33 = PLANE ( 'NONE',  #116 ) ;
#34 = PERSON_AND_ORGANIZATION ( #220, #160 ) ;
#35 = ORIENTED_EDGE ( 'NONE', *, *, #59, .T. ) ;
#36 = ADVANCED_FACE ( 'NONE', ( #7 ), #10, .T. ) ;
#37 = VECTOR ( 'NONE', #149, 1000.000000000000000 ) ;
#38 = ORIENTED_EDGE ( 'NONE', *, *, #227, .T. ) ;
#39 = VECTOR ( 'NONE', #30, 1000.000000000000000 ) ;
#40 = APPROVAL_DATE_TIME ( #194, #20 ) ;
#41 = AXIS2_PLACEMENT_3D ( 'NONE', #153, #193, #246 ) ;
#42 = CALENDAR_DATE ( 2022, 7, 7 ) ;
#43 = DIRECTION ( 'NONE',  ( 0.000000000000000000, 0.000000000000000000, 1.000000000000000000 ) ) ;
#44 = PRODUCT_DEFINITION_FORMATION_WITH_SPECIFIED_SOURCE ( 'LIBOVOLNÝ', '', #101, .NOT_KNOWN. ) ;
#45 = DIRECTION ( 'NONE',  ( 0.000000000000000000, 0.000000000000000000, 1.000000000000000000 ) ) ;
#46 = CARTESIAN_POINT ( 'NONE',  ( 5.250000000000000000, 6.429395695523604153E-16, 255.0000000000000000 ) ) ;
#47 =( NAMED_UNIT ( * ) SI_UNIT ( $, .STERADIAN. ) SOLID_ANGLE_UNIT ( ) );
#48 = DIRECTION ( 'NONE',  ( 1.000000000000000000, 0.000000000000000000, 0.000000000000000000 ) ) ;
#49 = CARTESIAN_POINT ( 'NONE',  ( 0.000000000000000000, 0.000000000000000000, 0.000000000000000000 ) ) ;
#50 = ORIENTED_EDGE ( 'NONE', *, *, #125, .T. ) ;
#51 = MANIFOLD_SOLID_BREP ( 'Pøidat vysunutím3', #65 ) ;
#52 = PERSON_AND_ORGANIZATION ( #220, #160 ) ;
#53 =( GEOMETRIC_REPRESENTATION_CONTEXT ( 3 ) GLOBAL_UNCERTAINTY_ASSIGNED_CONTEXT ( ( #200 ) ) GLOBAL_UNIT_ASSIGNED_CONTEXT ( ( #88, #117, #47 ) ) REPRESENTATION_CONTEXT ( 'NONE', 'WORKASPACE' ) );
#54 = COORDINATED_UNIVERSAL_TIME_OFFSET ( 1, 0, .AHEAD. ) ;
#55 = ADVANCED_FACE ( 'NONE', ( #12 ), #73, .F. ) ;
#56 = APPLICATION_CONTEXT ( 'configuration controlled 3d designs of mechanical parts and assemblies' ) ;
#57 = CC_DESIGN_DATE_AND_TIME_ASSIGNMENT ( #225, #152, ( #22 ) ) ;
#58 = ORIENTED_EDGE ( 'NONE', *, *, #97, .T. ) ;
#59 = EDGE_CURVE ( 'NONE', #13, #119, #113, .T. ) ;
#60 = EDGE_LOOP ( 'NONE', ( #64, #96 ) ) ;
#61 = CC_DESIGN_PERSON_AND_ORGANIZATION_ASSIGNMENT ( #107, #187, ( #22 ) ) ;
#62 = ADVANCED_BREP_SHAPE_REPRESENTATION ( '4911', ( #51, #199 ), #53 ) ;
#63 = PERSON_AND_ORGANIZATION_ROLE ( 'design_supplier' ) ;
#64 = ORIENTED_EDGE ( 'NONE', *, *, #227, .F. ) ;
#65 = CLOSED_SHELL ( 'NONE', ( #36, #182, #244, #150, #55, #123, #209 ) ) ;
#66 = SECURITY_CLASSIFICATION_LEVEL ( 'unclassified' ) ;
#67 = FACE_BOUND ( 'NONE', #105, .T. ) ;
#68 = DIRECTION ( 'NONE',  ( 0.000000000000000000, 0.000000000000000000, 1.000000000000000000 ) ) ;
#69 = ORIENTED_EDGE ( 'NONE', *, *, #249, .F. ) ;
#70 = CC_DESIGN_DATE_AND_TIME_ASSIGNMENT ( #201, #32, ( #2 ) ) ;
#71 = DIRECTION ( 'NONE',  ( -1.000000000000000000, 0.000000000000000000, 0.000000000000000000 ) ) ;
#72 = DIRECTION ( 'NONE',  ( 1.000000000000000000, 0.000000000000000000, 0.000000000000000000 ) ) ;
#73 = PLANE ( 'NONE',  #216 ) ;
#74 = CIRCLE ( 'NONE', #132, 8.000000000000000000 ) ;
#75 = DIRECTION ( 'NONE',  ( 1.000000000000000000, 0.000000000000000000, 0.000000000000000000 ) ) ;
#76 = APPROVAL ( #141, 'NEURÈENÝ' ) ;
#77 = ORIENTED_EDGE ( 'NONE', *, *, #97, .F. ) ;
#78 = EDGE_LOOP ( 'NONE', ( #208, #179 ) ) ;
#79 = CIRCLE ( 'NONE', #146, 8.000000000000000000 ) ;
#80 = ORIENTED_EDGE ( 'NONE', *, *, #125, .F. ) ;
#81 = AXIS2_PLACEMENT_3D ( 'NONE', #247, #114, #156 ) ;
#82 = EDGE_CURVE ( 'NONE', #84, #115, #104, .T. ) ;
#83 = EDGE_LOOP ( 'NONE', ( #80, #144, #95, #38 ) ) ;
#84 = VERTEX_POINT ( 'NONE', #155 ) ;
#85 = DATE_AND_TIME ( #42, #154 ) ;
#86 = DIRECTION ( 'NONE',  ( -0.000000000000000000, -0.000000000000000000, -1.000000000000000000 ) ) ;
#87 = VECTOR ( 'NONE', #118, 1000.000000000000000 ) ;
#88 =( LENGTH_UNIT ( ) NAMED_UNIT ( * ) SI_UNIT ( .MILLI., .METRE. ) );
#89 = CARTESIAN_POINT ( 'NONE',  ( 8.000000000000000000, 9.797174393178825657E-16, 5.000000000000000000 ) ) ;
#90 = EDGE_CURVE ( 'NONE', #119, #84, #207, .T. ) ;
#91 = CC_DESIGN_SECURITY_CLASSIFICATION ( #2, ( #44 ) ) ;
#92 = CARTESIAN_POINT ( 'NONE',  ( 8.000000000000000000, 9.797174393178825657E-16, 0.000000000000000000 ) ) ;
#93 = DIRECTION ( 'NONE',  ( 0.000000000000000000, 0.000000000000000000, 1.000000000000000000 ) ) ;
#94 = DIRECTION ( 'NONE',  ( 0.000000000000000000, 0.000000000000000000, 1.000000000000000000 ) ) ;
#95 = ORIENTED_EDGE ( 'NONE', *, *, #110, .T. ) ;
#96 = ORIENTED_EDGE ( 'NONE', *, *, #169, .F. ) ;
#97 = EDGE_CURVE ( 'NONE', #119, #13, #143, .T. ) ;
#98 = APPROVAL_DATE_TIME ( #85, #127 ) ;
#99 = PERSON_AND_ORGANIZATION ( #220, #160 ) ;
#100 = APPLICATION_CONTEXT ( 'configuration controlled 3d designs of mechanical parts and assemblies' ) ;
#101 = PRODUCT ( '4911', '4911', '', ( #176 ) ) ;
#102 = ORIENTED_EDGE ( 'NONE', *, *, #169, .T. ) ;
#103 = PRODUCT_RELATED_PRODUCT_CATEGORY ( 'detail', '', ( #101 ) ) ;
#104 = CIRCLE ( 'NONE', #129, 5.250000000000000000 ) ;
#105 = EDGE_LOOP ( 'NONE', ( #183, #165 ) ) ;
#106 = PERSON_AND_ORGANIZATION ( #220, #160 ) ;
#107 = PERSON_AND_ORGANIZATION ( #220, #160 ) ;
#108 = APPROVAL_PERSON_ORGANIZATION ( #99, #76, #238 ) ;
#109 = DIRECTION ( 'NONE',  ( 1.000000000000000000, 0.000000000000000000, 0.000000000000000000 ) ) ;
#110 = EDGE_CURVE ( 'NONE', #26, #126, #159, .T. ) ;
#111 = CARTESIAN_POINT ( 'NONE',  ( 0.000000000000000000, 0.000000000000000000, 0.000000000000000000 ) ) ;
#112 = CARTESIAN_POINT ( 'NONE',  ( 0.000000000000000000, 0.000000000000000000, 0.000000000000000000 ) ) ;
#113 = CIRCLE ( 'NONE', #166, 5.250000000000000000 ) ;
#114 = DIRECTION ( 'NONE',  ( -0.000000000000000000, -0.000000000000000000, -1.000000000000000000 ) ) ;
#115 = VERTEX_POINT ( 'NONE', #171 ) ;
#116 = AXIS2_PLACEMENT_3D ( 'NONE', #177, #206, #211 ) ;
#117 =( NAMED_UNIT ( * ) PLANE_ANGLE_UNIT ( ) SI_UNIT ( $, .RADIAN. ) );
#118 = DIRECTION ( 'NONE',  ( -0.000000000000000000, -0.000000000000000000, -1.000000000000000000 ) ) ;
#119 = VERTEX_POINT ( 'NONE', #138 ) ;
#120 = PERSON_AND_ORGANIZATION_ROLE ( 'classification_officer' ) ;
#121 = APPROVAL_ROLE ( '' ) ;
#122 = AXIS2_PLACEMENT_3D ( 'NONE', #189, #45, #75 ) ;
#123 = ADVANCED_FACE ( 'NONE', ( #131 ), #248, .T. ) ;
#124 = CIRCLE ( 'NONE', #122, 8.000000000000000000 ) ;
#125 = EDGE_CURVE ( 'NONE', #16, #231, #157, .T. ) ;
#126 = VERTEX_POINT ( 'NONE', #23 ) ;
#127 = APPROVAL ( #147, 'NEURÈENÝ' ) ;
#128 = COORDINATED_UNIVERSAL_TIME_OFFSET ( 1, 0, .AHEAD. ) ;
#129 = AXIS2_PLACEMENT_3D ( 'NONE', #25, #29, #135 ) ;
#130 = SHAPE_DEFINITION_REPRESENTATION ( #197, #62 ) ;
#131 = FACE_OUTER_BOUND ( 'NONE', #190, .T. ) ;
#132 = AXIS2_PLACEMENT_3D ( 'NONE', #111, #68, #72 ) ;
#133 = EDGE_CURVE ( 'NONE', #26, #16, #79, .T. ) ;
#134 = DIRECTION ( 'NONE',  ( 1.000000000000000000, 0.000000000000000000, -0.000000000000000000 ) ) ;
#135 = DIRECTION ( 'NONE',  ( 1.000000000000000000, 0.000000000000000000, 0.000000000000000000 ) ) ;
#136 = ORIENTED_EDGE ( 'NONE', *, *, #90, .T. ) ;
#137 = DIRECTION ( 'NONE',  ( 0.000000000000000000, 0.000000000000000000, 1.000000000000000000 ) ) ;
#138 = CARTESIAN_POINT ( 'NONE',  ( -5.250000000000000000, 0.000000000000000000, 255.0000000000000000 ) ) ;
#139 = DIRECTION ( 'NONE',  ( -1.000000000000000000, 0.000000000000000000, 0.000000000000000000 ) ) ;
#140 = DIRECTION ( 'NONE',  ( 1.000000000000000000, 0.000000000000000000, 0.000000000000000000 ) ) ;
#141 = APPROVAL_STATUS ( 'not_yet_approved' ) ;
#142 = DIRECTION ( 'NONE',  ( 1.000000000000000000, 0.000000000000000000, 0.000000000000000000 ) ) ;
#143 = CIRCLE ( 'NONE', #252, 5.250000000000000000 ) ;
#144 = ORIENTED_EDGE ( 'NONE', *, *, #133, .F. ) ;
#145 = CC_DESIGN_APPROVAL ( #127, ( #2 ) ) ;
#146 = AXIS2_PLACEMENT_3D ( 'NONE', #222, #43, #109 ) ;
#147 = APPROVAL_STATUS ( 'not_yet_approved' ) ;
#148 = APPROVAL_DATE_TIME ( #170, #76 ) ;
#149 = DIRECTION ( 'NONE',  ( -0.000000000000000000, -0.000000000000000000, -1.000000000000000000 ) ) ;
#150 = ADVANCED_FACE ( 'NONE', ( #67, #188 ), #172, .T. ) ;
#151 = FACE_OUTER_BOUND ( 'NONE', #1, .T. ) ;
#152 = DATE_TIME_ROLE ( 'creation_date' ) ;
#153 = CARTESIAN_POINT ( 'NONE',  ( 0.000000000000000000, 0.000000000000000000, 255.0000000000000000 ) ) ;
#154 = LOCAL_TIME ( 19, 24, 19.00000000000000000, #14 ) ;
#155 = CARTESIAN_POINT ( 'NONE',  ( -5.250000000000000000, 0.000000000000000000, 5.000000000000000000 ) ) ;
#156 = DIRECTION ( 'NONE',  ( -1.000000000000000000, 0.000000000000000000, 0.000000000000000000 ) ) ;
#157 = LINE ( 'NONE', #241, #37 ) ;
#158 = LINE ( 'NONE', #8, #39 ) ;
#159 = LINE ( 'NONE', #178, #195 ) ;
#160 = ORGANIZATION ( 'NEURÈENÝ', 'NEURÈENÝ', '' ) ;
#161 = CALENDAR_DATE ( 2022, 7, 7 ) ;
#162 = APPLICATION_PROTOCOL_DEFINITION ( 'international standard', 'config_control_design', 1994, #56 ) ;
#163 = EDGE_CURVE ( 'NONE', #115, #84, #236, .T. ) ;
#164 = DESIGN_CONTEXT ( 'detailed design', #100, 'design' ) ;
#165 = ORIENTED_EDGE ( 'NONE', *, *, #163, .F. ) ;
#166 = AXIS2_PLACEMENT_3D ( 'NONE', #212, #93, #140 ) ;
#167 = EDGE_LOOP ( 'NONE', ( #58, #35 ) ) ;
#168 = LOCAL_TIME ( 19, 24, 19.00000000000000000, #215 ) ;
#169 = EDGE_CURVE ( 'NONE', #231, #126, #237, .T. ) ;
#170 = DATE_AND_TIME ( #21, #168 ) ;
#171 = CARTESIAN_POINT ( 'NONE',  ( 5.250000000000000000, 6.429395695523604153E-16, 5.000000000000000000 ) ) ;
#172 = PLANE ( 'NONE',  #27 ) ;
#173 = DIRECTION ( 'NONE',  ( 1.000000000000000000, 0.000000000000000000, 0.000000000000000000 ) ) ;
#174 = DIRECTION ( 'NONE',  ( 1.000000000000000000, 0.000000000000000000, -0.000000000000000000 ) ) ;
#175 = APPROVAL_PERSON_ORGANIZATION ( #34, #20, #121 ) ;
#176 = MECHANICAL_CONTEXT ( 'NONE', #56, 'mechanical' ) ;
#177 = CARTESIAN_POINT ( 'NONE',  ( 0.000000000000000000, 0.000000000000000000, 255.0000000000000000 ) ) ;
#178 = CARTESIAN_POINT ( 'NONE',  ( -8.000000000000000000, 0.000000000000000000, 5.000000000000000000 ) ) ;
#179 = ORIENTED_EDGE ( 'NONE', *, *, #249, .T. ) ;
#180 = EDGE_LOOP ( 'NONE', ( #185, #223, #217, #219 ) ) ;
#181 = APPROVAL_PERSON_ORGANIZATION ( #184, #127, #202 ) ;
#182 = ADVANCED_FACE ( 'NONE', ( #151 ), #254, .T. ) ;
#183 = ORIENTED_EDGE ( 'NONE', *, *, #82, .F. ) ;
#184 = PERSON_AND_ORGANIZATION ( #220, #160 ) ;
#185 = ORIENTED_EDGE ( 'NONE', *, *, #59, .F. ) ;
#186 = LOCAL_TIME ( 19, 24, 19.00000000000000000, #253 ) ;
#187 = PERSON_AND_ORGANIZATION_ROLE ( 'creator' ) ;
#188 = FACE_OUTER_BOUND ( 'NONE', #78, .T. ) ;
#189 = CARTESIAN_POINT ( 'NONE',  ( 0.000000000000000000, 0.000000000000000000, 5.000000000000000000 ) ) ;
#190 = EDGE_LOOP ( 'NONE', ( #9, #77, #136, #198 ) ) ;
#191 = CARTESIAN_POINT ( 'NONE',  ( 0.000000000000000000, 0.000000000000000000, 5.000000000000000000 ) ) ;
#192 = CARTESIAN_POINT ( 'NONE',  ( -8.000000000000000000, 0.000000000000000000, 5.000000000000000000 ) ) ;
#193 = DIRECTION ( 'NONE',  ( -0.000000000000000000, -0.000000000000000000, -1.000000000000000000 ) ) ;
#194 = DATE_AND_TIME ( #15, #186 ) ;
#195 = VECTOR ( 'NONE', #251, 1000.000000000000000 ) ;
#196 = CC_DESIGN_PERSON_AND_ORGANIZATION_ASSIGNMENT ( #52, #120, ( #2 ) ) ;
#197 = PRODUCT_DEFINITION_SHAPE ( 'NONE', 'NONE',  #22 ) ;
#198 = ORIENTED_EDGE ( 'NONE', *, *, #82, .T. ) ;
#199 = AXIS2_PLACEMENT_3D ( 'NONE', #230, #24, #228 ) ;
#200 = UNCERTAINTY_MEASURE_WITH_UNIT (LENGTH_MEASURE( 1.000000000000000082E-05 ), #88, 'distance_accuracy_value', 'NONE');
#201 = DATE_AND_TIME ( #161, #203 ) ;
#202 = APPROVAL_ROLE ( '' ) ;
#203 = LOCAL_TIME ( 19, 24, 19.00000000000000000, #128 ) ;
#204 = PERSON_AND_ORGANIZATION_ROLE ( 'design_owner' ) ;
#205 = CARTESIAN_POINT ( 'NONE',  ( 0.000000000000000000, 0.000000000000000000, 255.0000000000000000 ) ) ;
#206 = DIRECTION ( 'NONE',  ( 0.000000000000000000, 0.000000000000000000, 1.000000000000000000 ) ) ;
#207 = LINE ( 'NONE', #31, #87 ) ;
#208 = ORIENTED_EDGE ( 'NONE', *, *, #133, .T. ) ;
#209 = ADVANCED_FACE ( 'NONE', ( #11 ), #33, .T. ) ;
#210 = CARTESIAN_POINT ( 'NONE',  ( 0.000000000000000000, 0.000000000000000000, 255.0000000000000000 ) ) ;
#211 = DIRECTION ( 'NONE',  ( 1.000000000000000000, 0.000000000000000000, -0.000000000000000000 ) ) ;
#212 = CARTESIAN_POINT ( 'NONE',  ( 0.000000000000000000, 0.000000000000000000, 255.0000000000000000 ) ) ;
#213 = AXIS2_PLACEMENT_3D ( 'NONE', #49, #94, #142 ) ;
#214 = PERSON_AND_ORGANIZATION ( #220, #160 ) ;
#215 = COORDINATED_UNIVERSAL_TIME_OFFSET ( 1, 0, .AHEAD. ) ;
#216 = AXIS2_PLACEMENT_3D ( 'NONE', #112, #226, #174 ) ;
#217 = ORIENTED_EDGE ( 'NONE', *, *, #163, .T. ) ;
#218 = EDGE_CURVE ( 'NONE', #13, #115, #158, .T. ) ;
#219 = ORIENTED_EDGE ( 'NONE', *, *, #90, .F. ) ;
#220 = PERSON ( 'NEURÈENÝ', 'NEURÈENÝ', 'NEURÈENÝ', ('NEURÈENÝ'), ('NEURÈENÝ'), ('NEURÈENÝ') ) ;
#221 = CALENDAR_DATE ( 2022, 7, 7 ) ;
#222 = CARTESIAN_POINT ( 'NONE',  ( 0.000000000000000000, 0.000000000000000000, 5.000000000000000000 ) ) ;
#223 = ORIENTED_EDGE ( 'NONE', *, *, #218, .T. ) ;
#224 = CYLINDRICAL_SURFACE ( 'NONE', #81, 8.000000000000000000 ) ;
#225 = DATE_AND_TIME ( #221, #19 ) ;
#226 = DIRECTION ( 'NONE',  ( 0.000000000000000000, 0.000000000000000000, 1.000000000000000000 ) ) ;
#227 = EDGE_CURVE ( 'NONE', #126, #231, #74, .T. ) ;
#228 = DIRECTION ( 'NONE',  ( 1.000000000000000000, 0.000000000000000000, 0.000000000000000000 ) ) ;
#229 = DIRECTION ( 'NONE',  ( 0.000000000000000000, 0.000000000000000000, 1.000000000000000000 ) ) ;
#230 = CARTESIAN_POINT ( 'NONE',  ( 0.000000000000000000, 0.000000000000000000, 0.000000000000000000 ) ) ;
#231 = VERTEX_POINT ( 'NONE', #92 ) ;
#232 = FACE_OUTER_BOUND ( 'NONE', #83, .T. ) ;
#233 = CC_DESIGN_PERSON_AND_ORGANIZATION_ASSIGNMENT ( #106, #63, ( #44 ) ) ;
#234 = CC_DESIGN_APPROVAL ( #76, ( #22 ) ) ;
#235 = CC_DESIGN_PERSON_AND_ORGANIZATION_ASSIGNMENT ( #214, #204, ( #101 ) ) ;
#236 = CIRCLE ( 'NONE', #3, 5.250000000000000000 ) ;
#237 = CIRCLE ( 'NONE', #213, 8.000000000000000000 ) ;
#238 = APPROVAL_ROLE ( '' ) ;
#239 = ORIENTED_EDGE ( 'NONE', *, *, #110, .F. ) ;
#240 = APPLICATION_PROTOCOL_DEFINITION ( 'international standard', 'config_control_design', 1994, #100 ) ;
#241 = CARTESIAN_POINT ( 'NONE',  ( 8.000000000000000000, 9.797174393178825657E-16, 5.000000000000000000 ) ) ;
#242 = PERSON_AND_ORGANIZATION_ROLE ( 'creator' ) ;
#243 = CARTESIAN_POINT ( 'NONE',  ( 0.000000000000000000, 0.000000000000000000, 5.000000000000000000 ) ) ;
#244 = ADVANCED_FACE ( 'NONE', ( #232 ), #224, .T. ) ;
#245 = CARTESIAN_POINT ( 'NONE',  ( 0.000000000000000000, 0.000000000000000000, 5.000000000000000000 ) ) ;
#246 = DIRECTION ( 'NONE',  ( -1.000000000000000000, 0.000000000000000000, 0.000000000000000000 ) ) ;
#247 = CARTESIAN_POINT ( 'NONE',  ( 0.000000000000000000, 0.000000000000000000, 5.000000000000000000 ) ) ;
#248 = CYLINDRICAL_SURFACE ( 'NONE', #18, 5.250000000000000000 ) ;
#249 = EDGE_CURVE ( 'NONE', #16, #26, #124, .T. ) ;
#250 = DIRECTION ( 'NONE',  ( 0.000000000000000000, 0.000000000000000000, 1.000000000000000000 ) ) ;
#251 = DIRECTION ( 'NONE',  ( -0.000000000000000000, -0.000000000000000000, -1.000000000000000000 ) ) ;
#252 = AXIS2_PLACEMENT_3D ( 'NONE', #210, #229, #48 ) ;
#253 = COORDINATED_UNIVERSAL_TIME_OFFSET ( 1, 0, .AHEAD. ) ;
#254 = CYLINDRICAL_SURFACE ( 'NONE', #5, 8.000000000000000000 ) ;
#255 = CC_DESIGN_APPROVAL ( #20, ( #44 ) ) ;
ENDSEC;
END-ISO-10303-21;
