ISO-10303-21;
HEADER;
FILE_DESCRIPTION (( 'STEP AP203' ),
    '1' );
FILE_NAME ('c111.STEP',
    '2022-07-07T17:37:17',
    ( '' ),
    ( '' ),
    'SwSTEP 2.0',
    'SolidWorks 2019',
    '' );
FILE_SCHEMA (( 'CONFIG_CONTROL_DESIGN' ));
ENDSEC;

DATA;
#1 = PLANE ( 'NONE',  #244 ) ;
#2 = VERTEX_POINT ( 'NONE', #131 ) ;
#3 = PRODUCT_DEFINITION_SHAPE ( 'NONE', 'NONE',  #16 ) ;
#4 = LINE ( 'NONE', #40, #162 ) ;
#5 = CARTESIAN_POINT ( 'NONE',  ( -6.000000000000000888, 0.000000000000000000, 5.000000000000000000 ) ) ;
#6 = DIRECTION ( 'NONE',  ( 1.000000000000000000, 0.000000000000000000, 0.000000000000000000 ) ) ;
#7 = ADVANCED_FACE ( 'NONE', ( #151 ), #252, .T. ) ;
#8 = PERSON_AND_ORGANIZATION ( #73, #121 ) ;
#9 = ORIENTED_EDGE ( 'NONE', *, *, #178, .F. ) ;
#10 = EDGE_LOOP ( 'NONE', ( #215, #9 ) ) ;
#11 = DIRECTION ( 'NONE',  ( -0.000000000000000000, -0.000000000000000000, -1.000000000000000000 ) ) ;
#12 = UNCERTAINTY_MEASURE_WITH_UNIT (LENGTH_MEASURE( 1.000000000000000082E-05 ), #37, 'distance_accuracy_value', 'NONE');
#13 = APPLICATION_PROTOCOL_DEFINITION ( 'international standard', 'config_control_design', 1994, #24 ) ;
#14 = FACE_OUTER_BOUND ( 'NONE', #192, .T. ) ;
#15 = PERSON_AND_ORGANIZATION_ROLE ( 'design_owner' ) ;
#16 = PRODUCT_DEFINITION ( 'NEZNÁMÝ', '', #28, #143 ) ;
#17 = DIRECTION ( 'NONE',  ( 0.000000000000000000, 0.000000000000000000, 1.000000000000000000 ) ) ;
#18 = FACE_BOUND ( 'NONE', #10, .T. ) ;
#19 = CIRCLE ( 'NONE', #110, 3.250000000000000444 ) ;
#20 = DIRECTION ( 'NONE',  ( -0.000000000000000000, -0.000000000000000000, -1.000000000000000000 ) ) ;
#21 = ORIENTED_EDGE ( 'NONE', *, *, #23, .T. ) ;
#22 = CARTESIAN_POINT ( 'NONE',  ( 0.000000000000000000, 0.000000000000000000, 255.0000000000000000 ) ) ;
#23 = EDGE_CURVE ( 'NONE', #136, #2, #216, .T. ) ;
#24 = APPLICATION_CONTEXT ( 'configuration controlled 3d designs of mechanical parts and assemblies' ) ;
#25 = DIRECTION ( 'NONE',  ( 0.000000000000000000, 0.000000000000000000, 1.000000000000000000 ) ) ;
#26 = CC_DESIGN_PERSON_AND_ORGANIZATION_ASSIGNMENT ( #30, #161, ( #28 ) ) ;
#27 = PERSON_AND_ORGANIZATION_ROLE ( 'creator' ) ;
#28 = PRODUCT_DEFINITION_FORMATION_WITH_SPECIFIED_SOURCE ( 'LIBOVOLNÝ', '', #82, .NOT_KNOWN. ) ;
#29 = ORIENTED_EDGE ( 'NONE', *, *, #165, .F. ) ;
#30 = PERSON_AND_ORGANIZATION ( #73, #121 ) ;
#31 = ORIENTED_EDGE ( 'NONE', *, *, #243, .F. ) ;
#32 = AXIS2_PLACEMENT_3D ( 'NONE', #89, #149, #52 ) ;
#33 = DATE_AND_TIME ( #140, #45 ) ;
#34 = APPROVAL_STATUS ( 'not_yet_approved' ) ;
#35 = DIRECTION ( 'NONE',  ( -1.000000000000000000, 0.000000000000000000, 0.000000000000000000 ) ) ;
#36 = ADVANCED_FACE ( 'NONE', ( #92 ), #214, .T. ) ;
#37 =( LENGTH_UNIT ( ) NAMED_UNIT ( * ) SI_UNIT ( .MILLI., .METRE. ) );
#38 = AXIS2_PLACEMENT_3D ( 'NONE', #95, #114, #217 ) ;
#39 = DIRECTION ( 'NONE',  ( 1.000000000000000000, 0.000000000000000000, -0.000000000000000000 ) ) ;
#40 = CARTESIAN_POINT ( 'NONE',  ( 6.000000000000000888, 7.347880794884120722E-16, 5.000000000000000000 ) ) ;
#41 = DIRECTION ( 'NONE',  ( 1.000000000000000000, 0.000000000000000000, 0.000000000000000000 ) ) ;
#42 = ORIENTED_EDGE ( 'NONE', *, *, #108, .T. ) ;
#43 = EDGE_CURVE ( 'NONE', #100, #2, #153, .T. ) ;
#44 = CARTESIAN_POINT ( 'NONE',  ( -3.250000000000000444, 0.000000000000000000, 255.0000000000000000 ) ) ;
#45 = LOCAL_TIME ( 19, 37, 17.00000000000000000, #202 ) ;
#46 = DIRECTION ( 'NONE',  ( 1.000000000000000000, 0.000000000000000000, 0.000000000000000000 ) ) ;
#47 = EDGE_CURVE ( 'NONE', #64, #100, #93, .T. ) ;
#48 = ORIENTED_EDGE ( 'NONE', *, *, #47, .T. ) ;
#49 = SECURITY_CLASSIFICATION_LEVEL ( 'unclassified' ) ;
#50 = CARTESIAN_POINT ( 'NONE',  ( 0.000000000000000000, 0.000000000000000000, 5.000000000000000000 ) ) ;
#51 = LOCAL_TIME ( 19, 37, 17.00000000000000000, #236 ) ;
#52 = DIRECTION ( 'NONE',  ( 1.000000000000000000, 0.000000000000000000, 0.000000000000000000 ) ) ;
#53 = DIRECTION ( 'NONE',  ( 1.000000000000000000, 0.000000000000000000, 0.000000000000000000 ) ) ;
#54 = CC_DESIGN_SECURITY_CLASSIFICATION ( #72, ( #28 ) ) ;
#55 = CARTESIAN_POINT ( 'NONE',  ( 0.000000000000000000, 0.000000000000000000, 0.000000000000000000 ) ) ;
#56 = ORIENTED_EDGE ( 'NONE', *, *, #178, .T. ) ;
#57 = DIRECTION ( 'NONE',  ( 0.000000000000000000, 0.000000000000000000, 1.000000000000000000 ) ) ;
#58 = ORIENTED_EDGE ( 'NONE', *, *, #65, .F. ) ;
#59 = MANIFOLD_SOLID_BREP ( 'Pøidat vysunutím3', #168 ) ;
#60 = CARTESIAN_POINT ( 'NONE',  ( 0.000000000000000000, 0.000000000000000000, 5.000000000000000000 ) ) ;
#61 = LOCAL_TIME ( 19, 37, 17.00000000000000000, #200 ) ;
#62 = EDGE_CURVE ( 'NONE', #115, #85, #193, .T. ) ;
#63 = CALENDAR_DATE ( 2022, 7, 7 ) ;
#64 = VERTEX_POINT ( 'NONE', #74 ) ;
#65 = EDGE_CURVE ( 'NONE', #105, #76, #19, .T. ) ;
#66 = DATE_TIME_ROLE ( 'classification_date' ) ;
#67 = CC_DESIGN_PERSON_AND_ORGANIZATION_ASSIGNMENT ( #249, #15, ( #82 ) ) ;
#68 = VECTOR ( 'NONE', #251, 1000.000000000000000 ) ;
#69 = PERSON_AND_ORGANIZATION ( #73, #121 ) ;
#70 = MECHANICAL_CONTEXT ( 'NONE', #188, 'mechanical' ) ;
#71 = DIRECTION ( 'NONE',  ( 0.000000000000000000, 0.000000000000000000, 1.000000000000000000 ) ) ;
#72 = SECURITY_CLASSIFICATION ( '', '', #49 ) ;
#73 = PERSON ( 'NEURÈENÝ', 'NEURÈENÝ', 'NEURÈENÝ', ('NEURÈENÝ'), ('NEURÈENÝ'), ('NEURÈENÝ') ) ;
#74 = CARTESIAN_POINT ( 'NONE',  ( 6.000000000000000888, 7.347880794884120722E-16, 5.000000000000000000 ) ) ;
#75 = DIRECTION ( 'NONE',  ( 1.000000000000000000, 0.000000000000000000, -0.000000000000000000 ) ) ;
#76 = VERTEX_POINT ( 'NONE', #97 ) ;
#77 = CC_DESIGN_DATE_AND_TIME_ASSIGNMENT ( #119, #127, ( #16 ) ) ;
#78 = DIRECTION ( 'NONE',  ( -1.000000000000000000, 0.000000000000000000, 0.000000000000000000 ) ) ;
#79 = DIRECTION ( 'NONE',  ( -0.000000000000000000, -0.000000000000000000, -1.000000000000000000 ) ) ;
#80 =( GEOMETRIC_REPRESENTATION_CONTEXT ( 3 ) GLOBAL_UNCERTAINTY_ASSIGNED_CONTEXT ( ( #12 ) ) GLOBAL_UNIT_ASSIGNED_CONTEXT ( ( #37, #107, #111 ) ) REPRESENTATION_CONTEXT ( 'NONE', 'WORKASPACE' ) );
#81 = APPROVAL_ROLE ( '' ) ;
#82 = PRODUCT ( 'c111', 'c111', '', ( #70 ) ) ;
#83 = APPROVAL_STATUS ( 'not_yet_approved' ) ;
#84 = ORIENTED_EDGE ( 'NONE', *, *, #43, .F. ) ;
#85 = VERTEX_POINT ( 'NONE', #181 ) ;
#86 = COORDINATED_UNIVERSAL_TIME_OFFSET ( 1, 0, .AHEAD. ) ;
#87 = ORIENTED_EDGE ( 'NONE', *, *, #62, .T. ) ;
#88 = DIRECTION ( 'NONE',  ( -0.000000000000000000, -0.000000000000000000, -1.000000000000000000 ) ) ;
#89 = CARTESIAN_POINT ( 'NONE',  ( 0.000000000000000000, 0.000000000000000000, 0.000000000000000000 ) ) ;
#90 = DIRECTION ( 'NONE',  ( 1.000000000000000000, 0.000000000000000000, -0.000000000000000000 ) ) ;
#91 = CARTESIAN_POINT ( 'NONE',  ( 6.000000000000000888, 7.347880794884120722E-16, 0.000000000000000000 ) ) ;
#92 = FACE_OUTER_BOUND ( 'NONE', #94, .T. ) ;
#93 = CIRCLE ( 'NONE', #235, 6.000000000000000888 ) ;
#94 = EDGE_LOOP ( 'NONE', ( #241, #42, #21, #84 ) ) ;
#95 = CARTESIAN_POINT ( 'NONE',  ( 0.000000000000000000, 0.000000000000000000, 255.0000000000000000 ) ) ;
#96 = CARTESIAN_POINT ( 'NONE',  ( 0.000000000000000000, 0.000000000000000000, 5.000000000000000000 ) ) ;
#97 = CARTESIAN_POINT ( 'NONE',  ( -3.250000000000000444, 0.000000000000000000, 255.0000000000000000 ) ) ;
#98 = CIRCLE ( 'NONE', #182, 6.000000000000000888 ) ;
#99 = APPROVAL_ROLE ( '' ) ;
#100 = VERTEX_POINT ( 'NONE', #212 ) ;
#101 = PERSON_AND_ORGANIZATION ( #73, #121 ) ;
#102 = AXIS2_PLACEMENT_3D ( 'NONE', #106, #71, #39 ) ;
#103 = APPROVAL ( #83, 'NEURÈENÝ' ) ;
#104 = PERSON_AND_ORGANIZATION ( #73, #121 ) ;
#105 = VERTEX_POINT ( 'NONE', #255 ) ;
#106 = CARTESIAN_POINT ( 'NONE',  ( 0.000000000000000000, 0.000000000000000000, 0.000000000000000000 ) ) ;
#107 =( NAMED_UNIT ( * ) PLANE_ANGLE_UNIT ( ) SI_UNIT ( $, .RADIAN. ) );
#108 = EDGE_CURVE ( 'NONE', #64, #136, #4, .T. ) ;
#109 = DIRECTION ( 'NONE',  ( 0.000000000000000000, 0.000000000000000000, 1.000000000000000000 ) ) ;
#110 = AXIS2_PLACEMENT_3D ( 'NONE', #22, #25, #41 ) ;
#111 =( NAMED_UNIT ( * ) SI_UNIT ( $, .STERADIAN. ) SOLID_ANGLE_UNIT ( ) );
#112 = EDGE_CURVE ( 'NONE', #76, #105, #144, .T. ) ;
#113 = CARTESIAN_POINT ( 'NONE',  ( 0.000000000000000000, 0.000000000000000000, 5.000000000000000000 ) ) ;
#114 = DIRECTION ( 'NONE',  ( 0.000000000000000000, 0.000000000000000000, 1.000000000000000000 ) ) ;
#115 = VERTEX_POINT ( 'NONE', #179 ) ;
#116 = DIRECTION ( 'NONE',  ( 1.000000000000000000, 0.000000000000000000, 0.000000000000000000 ) ) ;
#117 = CARTESIAN_POINT ( 'NONE',  ( 0.000000000000000000, 0.000000000000000000, 5.000000000000000000 ) ) ;
#118 = EDGE_CURVE ( 'NONE', #100, #64, #98, .T. ) ;
#119 = DATE_AND_TIME ( #63, #61 ) ;
#120 = CC_DESIGN_APPROVAL ( #103, ( #72 ) ) ;
#121 = ORGANIZATION ( 'NEURÈENÝ', 'NEURÈENÝ', '' ) ;
#122 = EDGE_LOOP ( 'NONE', ( #29, #239 ) ) ;
#123 = ORIENTED_EDGE ( 'NONE', *, *, #108, .F. ) ;
#124 = AXIS2_PLACEMENT_3D ( 'NONE', #133, #88, #199 ) ;
#125 = PERSON_AND_ORGANIZATION ( #73, #121 ) ;
#126 = APPROVAL ( #34, 'NEURÈENÝ' ) ;
#127 = DATE_TIME_ROLE ( 'creation_date' ) ;
#128 = AXIS2_PLACEMENT_3D ( 'NONE', #117, #191, #53 ) ;
#129 = DATE_AND_TIME ( #247, #253 ) ;
#130 = APPROVAL_DATE_TIME ( #129, #126 ) ;
#131 = CARTESIAN_POINT ( 'NONE',  ( -6.000000000000000888, 0.000000000000000000, 0.000000000000000000 ) ) ;
#132 = APPLICATION_PROTOCOL_DEFINITION ( 'international standard', 'config_control_design', 1994, #188 ) ;
#133 = CARTESIAN_POINT ( 'NONE',  ( 0.000000000000000000, 0.000000000000000000, 255.0000000000000000 ) ) ;
#134 = AXIS2_PLACEMENT_3D ( 'NONE', #195, #20, #78 ) ;
#135 = CYLINDRICAL_SURFACE ( 'NONE', #134, 3.250000000000000444 ) ;
#136 = VERTEX_POINT ( 'NONE', #91 ) ;
#137 = CARTESIAN_POINT ( 'NONE',  ( 0.000000000000000000, 0.000000000000000000, 5.000000000000000000 ) ) ;
#138 = DIRECTION ( 'NONE',  ( 0.000000000000000000, 0.000000000000000000, 1.000000000000000000 ) ) ;
#139 = CC_DESIGN_PERSON_AND_ORGANIZATION_ASSIGNMENT ( #8, #242, ( #72 ) ) ;
#140 = CALENDAR_DATE ( 2022, 7, 7 ) ;
#141 = EDGE_LOOP ( 'NONE', ( #123, #230, #204, #203 ) ) ;
#142 = EDGE_LOOP ( 'NONE', ( #176, #48 ) ) ;
#143 = DESIGN_CONTEXT ( 'detailed design', #24, 'design' ) ;
#144 = CIRCLE ( 'NONE', #38, 3.250000000000000444 ) ;
#145 = FACE_OUTER_BOUND ( 'NONE', #141, .T. ) ;
#146 = CARTESIAN_POINT ( 'NONE',  ( 0.000000000000000000, 0.000000000000000000, 255.0000000000000000 ) ) ;
#147 = PRODUCT_RELATED_PRODUCT_CATEGORY ( 'detail', '', ( #82 ) ) ;
#148 = PERSON_AND_ORGANIZATION ( #73, #121 ) ;
#149 = DIRECTION ( 'NONE',  ( 0.000000000000000000, 0.000000000000000000, 1.000000000000000000 ) ) ;
#150 = ADVANCED_FACE ( 'NONE', ( #18, #158 ), #1, .T. ) ;
#151 = FACE_OUTER_BOUND ( 'NONE', #196, .T. ) ;
#152 = AXIS2_PLACEMENT_3D ( 'NONE', #96, #175, #218 ) ;
#153 = LINE ( 'NONE', #5, #233 ) ;
#154 = LINE ( 'NONE', #44, #163 ) ;
#155 = APPROVAL_PERSON_ORGANIZATION ( #148, #126, #171 ) ;
#156 = CARTESIAN_POINT ( 'NONE',  ( 0.000000000000000000, 0.000000000000000000, 0.000000000000000000 ) ) ;
#157 = EDGE_CURVE ( 'NONE', #76, #115, #154, .T. ) ;
#158 = FACE_OUTER_BOUND ( 'NONE', #142, .T. ) ;
#159 = AXIS2_PLACEMENT_3D ( 'NONE', #146, #173, #90 ) ;
#160 = ADVANCED_FACE ( 'NONE', ( #228 ), #135, .T. ) ;
#161 = PERSON_AND_ORGANIZATION_ROLE ( 'design_supplier' ) ;
#162 = VECTOR ( 'NONE', #79, 1000.000000000000000 ) ;
#163 = VECTOR ( 'NONE', #174, 1000.000000000000000 ) ;
#164 = ORIENTED_EDGE ( 'NONE', *, *, #157, .F. ) ;
#165 = EDGE_CURVE ( 'NONE', #2, #136, #184, .T. ) ;
#166 = CALENDAR_DATE ( 2022, 7, 7 ) ;
#167 = ORIENTED_EDGE ( 'NONE', *, *, #112, .T. ) ;
#168 = CLOSED_SHELL ( 'NONE', ( #160, #36, #210, #150, #250, #7, #237 ) ) ;
#169 = CARTESIAN_POINT ( 'NONE',  ( 3.250000000000000444, 3.980102097228898231E-16, 255.0000000000000000 ) ) ;
#170 = APPROVAL_PERSON_ORGANIZATION ( #125, #227, #99 ) ;
#171 = APPROVAL_ROLE ( '' ) ;
#172 = DIRECTION ( 'NONE',  ( 1.000000000000000000, 0.000000000000000000, 0.000000000000000000 ) ) ;
#173 = DIRECTION ( 'NONE',  ( 0.000000000000000000, 0.000000000000000000, 1.000000000000000000 ) ) ;
#174 = DIRECTION ( 'NONE',  ( -0.000000000000000000, -0.000000000000000000, -1.000000000000000000 ) ) ;
#175 = DIRECTION ( 'NONE',  ( -0.000000000000000000, -0.000000000000000000, -1.000000000000000000 ) ) ;
#176 = ORIENTED_EDGE ( 'NONE', *, *, #118, .T. ) ;
#177 = DIRECTION ( 'NONE',  ( 0.000000000000000000, 0.000000000000000000, 1.000000000000000000 ) ) ;
#178 = EDGE_CURVE ( 'NONE', #85, #115, #198, .T. ) ;
#179 = CARTESIAN_POINT ( 'NONE',  ( -3.250000000000000444, 0.000000000000000000, 5.000000000000000000 ) ) ;
#180 = ADVANCED_BREP_SHAPE_REPRESENTATION ( 'c111', ( #59, #32 ), #80 ) ;
#181 = CARTESIAN_POINT ( 'NONE',  ( 3.250000000000000444, 3.980102097228898231E-16, 5.000000000000000000 ) ) ;
#182 = AXIS2_PLACEMENT_3D ( 'NONE', #113, #17, #6 ) ;
#183 = CC_DESIGN_PERSON_AND_ORGANIZATION_ASSIGNMENT ( #69, #209, ( #16 ) ) ;
#184 = CIRCLE ( 'NONE', #225, 6.000000000000000888 ) ;
#185 = APPROVAL_STATUS ( 'not_yet_approved' ) ;
#186 = AXIS2_PLACEMENT_3D ( 'NONE', #197, #109, #172 ) ;
#187 = PLANE ( 'NONE',  #159 ) ;
#188 = APPLICATION_CONTEXT ( 'configuration controlled 3d designs of mechanical parts and assemblies' ) ;
#189 = CYLINDRICAL_SURFACE ( 'NONE', #246, 6.000000000000000888 ) ;
#190 = APPROVAL_PERSON_ORGANIZATION ( #104, #103, #81 ) ;
#191 = DIRECTION ( 'NONE',  ( 0.000000000000000000, 0.000000000000000000, 1.000000000000000000 ) ) ;
#192 = EDGE_LOOP ( 'NONE', ( #167, #232 ) ) ;
#193 = CIRCLE ( 'NONE', #128, 3.250000000000000444 ) ;
#194 = CC_DESIGN_PERSON_AND_ORGANIZATION_ASSIGNMENT ( #101, #27, ( #28 ) ) ;
#195 = CARTESIAN_POINT ( 'NONE',  ( 0.000000000000000000, 0.000000000000000000, 255.0000000000000000 ) ) ;
#196 = EDGE_LOOP ( 'NONE', ( #31, #240, #213, #87 ) ) ;
#197 = CARTESIAN_POINT ( 'NONE',  ( 0.000000000000000000, 0.000000000000000000, 5.000000000000000000 ) ) ;
#198 = CIRCLE ( 'NONE', #186, 3.250000000000000444 ) ;
#199 = DIRECTION ( 'NONE',  ( -1.000000000000000000, 0.000000000000000000, 0.000000000000000000 ) ) ;
#200 = COORDINATED_UNIVERSAL_TIME_OFFSET ( 1, 0, .AHEAD. ) ;
#201 = CC_DESIGN_APPROVAL ( #227, ( #28 ) ) ;
#202 = COORDINATED_UNIVERSAL_TIME_OFFSET ( 1, 0, .AHEAD. ) ;
#203 = ORIENTED_EDGE ( 'NONE', *, *, #165, .T. ) ;
#204 = ORIENTED_EDGE ( 'NONE', *, *, #43, .T. ) ;
#205 = COORDINATED_UNIVERSAL_TIME_OFFSET ( 1, 0, .AHEAD. ) ;
#206 = LOCAL_TIME ( 19, 37, 17.00000000000000000, #205 ) ;
#207 = DATE_AND_TIME ( #219, #51 ) ;
#208 = FACE_OUTER_BOUND ( 'NONE', #122, .T. ) ;
#209 = PERSON_AND_ORGANIZATION_ROLE ( 'creator' ) ;
#210 = ADVANCED_FACE ( 'NONE', ( #145 ), #189, .T. ) ;
#211 = LINE ( 'NONE', #169, #68 ) ;
#212 = CARTESIAN_POINT ( 'NONE',  ( -6.000000000000000888, 0.000000000000000000, 5.000000000000000000 ) ) ;
#213 = ORIENTED_EDGE ( 'NONE', *, *, #157, .T. ) ;
#214 = CYLINDRICAL_SURFACE ( 'NONE', #152, 6.000000000000000888 ) ;
#215 = ORIENTED_EDGE ( 'NONE', *, *, #62, .F. ) ;
#216 = CIRCLE ( 'NONE', #248, 6.000000000000000888 ) ;
#217 = DIRECTION ( 'NONE',  ( 1.000000000000000000, 0.000000000000000000, 0.000000000000000000 ) ) ;
#218 = DIRECTION ( 'NONE',  ( -1.000000000000000000, 0.000000000000000000, 0.000000000000000000 ) ) ;
#219 = CALENDAR_DATE ( 2022, 7, 7 ) ;
#220 = APPROVAL_DATE_TIME ( #207, #103 ) ;
#221 = EDGE_LOOP ( 'NONE', ( #58, #224, #56, #164 ) ) ;
#222 = APPROVAL_DATE_TIME ( #223, #227 ) ;
#223 = DATE_AND_TIME ( #166, #206 ) ;
#224 = ORIENTED_EDGE ( 'NONE', *, *, #243, .T. ) ;
#225 = AXIS2_PLACEMENT_3D ( 'NONE', #156, #231, #116 ) ;
#226 = DIRECTION ( 'NONE',  ( -0.000000000000000000, -0.000000000000000000, -1.000000000000000000 ) ) ;
#227 = APPROVAL ( #185, 'NEURÈENÝ' ) ;
#228 = FACE_OUTER_BOUND ( 'NONE', #221, .T. ) ;
#229 = CC_DESIGN_APPROVAL ( #126, ( #16 ) ) ;
#230 = ORIENTED_EDGE ( 'NONE', *, *, #118, .F. ) ;
#231 = DIRECTION ( 'NONE',  ( 0.000000000000000000, 0.000000000000000000, 1.000000000000000000 ) ) ;
#232 = ORIENTED_EDGE ( 'NONE', *, *, #65, .T. ) ;
#233 = VECTOR ( 'NONE', #226, 1000.000000000000000 ) ;
#234 = DIRECTION ( 'NONE',  ( 1.000000000000000000, 0.000000000000000000, 0.000000000000000000 ) ) ;
#235 = AXIS2_PLACEMENT_3D ( 'NONE', #137, #177, #234 ) ;
#236 = COORDINATED_UNIVERSAL_TIME_OFFSET ( 1, 0, .AHEAD. ) ;
#237 = ADVANCED_FACE ( 'NONE', ( #14 ), #187, .T. ) ;
#238 = SHAPE_DEFINITION_REPRESENTATION ( #3, #180 ) ;
#239 = ORIENTED_EDGE ( 'NONE', *, *, #23, .F. ) ;
#240 = ORIENTED_EDGE ( 'NONE', *, *, #112, .F. ) ;
#241 = ORIENTED_EDGE ( 'NONE', *, *, #47, .F. ) ;
#242 = PERSON_AND_ORGANIZATION_ROLE ( 'classification_officer' ) ;
#243 = EDGE_CURVE ( 'NONE', #105, #85, #211, .T. ) ;
#244 = AXIS2_PLACEMENT_3D ( 'NONE', #60, #138, #75 ) ;
#245 = PLANE ( 'NONE',  #102 ) ;
#246 = AXIS2_PLACEMENT_3D ( 'NONE', #50, #11, #35 ) ;
#247 = CALENDAR_DATE ( 2022, 7, 7 ) ;
#248 = AXIS2_PLACEMENT_3D ( 'NONE', #55, #57, #46 ) ;
#249 = PERSON_AND_ORGANIZATION ( #73, #121 ) ;
#250 = ADVANCED_FACE ( 'NONE', ( #208 ), #245, .F. ) ;
#251 = DIRECTION ( 'NONE',  ( -0.000000000000000000, -0.000000000000000000, -1.000000000000000000 ) ) ;
#252 = CYLINDRICAL_SURFACE ( 'NONE', #124, 3.250000000000000444 ) ;
#253 = LOCAL_TIME ( 19, 37, 17.00000000000000000, #86 ) ;
#254 = CC_DESIGN_DATE_AND_TIME_ASSIGNMENT ( #33, #66, ( #72 ) ) ;
#255 = CARTESIAN_POINT ( 'NONE',  ( 3.250000000000000444, 3.980102097228898231E-16, 255.0000000000000000 ) ) ;
ENDSEC;
END-ISO-10303-21;
