ISO-10303-21;
HEADER;
FILE_DESCRIPTION (( 'STEP AP203' ),
    '1' );
FILE_NAME ('53d3.STEP',
    '2022-07-07T17:45:03',
    ( '' ),
    ( '' ),
    'SwSTEP 2.0',
    'SolidWorks 2019',
    '' );
FILE_SCHEMA (( 'CONFIG_CONTROL_DESIGN' ));
ENDSEC;

DATA;
#1 = DIRECTION ( 'NONE',  ( 1.000000000000000000, 0.000000000000000000, 0.000000000000000000 ) ) ;
#2 = CYLINDRICAL_SURFACE ( 'NONE', #9, 2.600000000000000089 ) ;
#3 = COORDINATED_UNIVERSAL_TIME_OFFSET ( 1, 0, .AHEAD. ) ;
#4 = DIRECTION ( 'NONE',  ( -0.000000000000000000, -0.000000000000000000, -1.000000000000000000 ) ) ;
#5 = APPROVAL_ROLE ( '' ) ;
#6 = DIRECTION ( 'NONE',  ( -0.000000000000000000, -0.000000000000000000, -1.000000000000000000 ) ) ;
#7 = MECHANICAL_CONTEXT ( 'NONE', #85, 'mechanical' ) ;
#8 = VECTOR ( 'NONE', #105, 1000.000000000000000 ) ;
#9 = AXIS2_PLACEMENT_3D ( 'NONE', #219, #117, #78 ) ;
#10 = CALENDAR_DATE ( 2022, 7, 7 ) ;
#11 = UNCERTAINTY_MEASURE_WITH_UNIT (LENGTH_MEASURE( 1.000000000000000082E-05 ), #140, 'distance_accuracy_value', 'NONE');
#12 = COORDINATED_UNIVERSAL_TIME_OFFSET ( 1, 0, .AHEAD. ) ;
#13 = CIRCLE ( 'NONE', #233, 2.600000000000000089 ) ;
#14 = ORIENTED_EDGE ( 'NONE', *, *, #228, .T. ) ;
#15 = ORIENTED_EDGE ( 'NONE', *, *, #195, .F. ) ;
#16 = LINE ( 'NONE', #92, #91 ) ;
#17 = ADVANCED_FACE ( 'NONE', ( #71, #232 ), #192, .T. ) ;
#18 = ORIENTED_EDGE ( 'NONE', *, *, #211, .F. ) ;
#19 = APPROVAL_PERSON_ORGANIZATION ( #189, #110, #131 ) ;
#20 = PRODUCT_DEFINITION_SHAPE ( 'NONE', 'NONE',  #83 ) ;
#21 = ORIENTED_EDGE ( 'NONE', *, *, #228, .F. ) ;
#22 = DIRECTION ( 'NONE',  ( -0.000000000000000000, -0.000000000000000000, -1.000000000000000000 ) ) ;
#23 = AXIS2_PLACEMENT_3D ( 'NONE', #184, #76, #124 ) ;
#24 = CALENDAR_DATE ( 2022, 7, 7 ) ;
#25 = CARTESIAN_POINT ( 'NONE',  ( 0.000000000000000000, 0.000000000000000000, 3.000000000000000000 ) ) ;
#26 = DIRECTION ( 'NONE',  ( 0.000000000000000000, 0.000000000000000000, 1.000000000000000000 ) ) ;
#27 = APPROVAL_ROLE ( '' ) ;
#28 = DIRECTION ( 'NONE',  ( 1.000000000000000000, 0.000000000000000000, 0.000000000000000000 ) ) ;
#29 = FACE_OUTER_BOUND ( 'NONE', #115, .T. ) ;
#30 = CC_DESIGN_PERSON_AND_ORGANIZATION_ASSIGNMENT ( #68, #169, ( #133 ) ) ;
#31 = DATE_AND_TIME ( #88, #139 ) ;
#32 = EDGE_LOOP ( 'NONE', ( #172, #151 ) ) ;
#33 = COORDINATED_UNIVERSAL_TIME_OFFSET ( 1, 0, .AHEAD. ) ;
#34 = VERTEX_POINT ( 'NONE', #114 ) ;
#35 = DESIGN_CONTEXT ( 'detailed design', #153, 'design' ) ;
#36 = DIRECTION ( 'NONE',  ( 1.000000000000000000, 0.000000000000000000, -0.000000000000000000 ) ) ;
#37 = EDGE_CURVE ( 'NONE', #89, #190, #16, .T. ) ;
#38 = DIRECTION ( 'NONE',  ( 1.000000000000000000, 0.000000000000000000, -0.000000000000000000 ) ) ;
#39 = ORIENTED_EDGE ( 'NONE', *, *, #220, .F. ) ;
#40 = FACE_OUTER_BOUND ( 'NONE', #212, .T. ) ;
#41 = DIRECTION ( 'NONE',  ( -1.000000000000000000, 0.000000000000000000, 0.000000000000000000 ) ) ;
#42 = CYLINDRICAL_SURFACE ( 'NONE', #87, 5.000000000000000000 ) ;
#43 = CC_DESIGN_PERSON_AND_ORGANIZATION_ASSIGNMENT ( #210, #130, ( #109 ) ) ;
#44 = CARTESIAN_POINT ( 'NONE',  ( 0.000000000000000000, 0.000000000000000000, 3.000000000000000000 ) ) ;
#45 = FACE_OUTER_BOUND ( 'NONE', #32, .T. ) ;
#46 = CC_DESIGN_APPROVAL ( #247, ( #133 ) ) ;
#47 = VECTOR ( 'NONE', #22, 1000.000000000000000 ) ;
#48 = DATE_TIME_ROLE ( 'classification_date' ) ;
#49 = DATE_AND_TIME ( #10, #213 ) ;
#50 = ORIENTED_EDGE ( 'NONE', *, *, #95, .F. ) ;
#51 = AXIS2_PLACEMENT_3D ( 'NONE', #101, #145, #243 ) ;
#52 = LOCAL_TIME ( 19, 45, 3.000000000000000000, #61 ) ;
#53 = ORIENTED_EDGE ( 'NONE', *, *, #206, .T. ) ;
#54 = PLANE ( 'NONE',  #159 ) ;
#55 = AXIS2_PLACEMENT_3D ( 'NONE', #44, #225, #161 ) ;
#56 = ORIENTED_EDGE ( 'NONE', *, *, #108, .T. ) ;
#57 = CIRCLE ( 'NONE', #207, 2.600000000000000089 ) ;
#58 = MANIFOLD_SOLID_BREP ( 'Pøidat vysunutím3', #74 ) ;
#59 = COORDINATED_UNIVERSAL_TIME_OFFSET ( 1, 0, .AHEAD. ) ;
#60 = CARTESIAN_POINT ( 'NONE',  ( 0.000000000000000000, 0.000000000000000000, 318.0000000000000000 ) ) ;
#61 = COORDINATED_UNIVERSAL_TIME_OFFSET ( 1, 0, .AHEAD. ) ;
#62 = DIRECTION ( 'NONE',  ( 1.000000000000000000, 0.000000000000000000, 0.000000000000000000 ) ) ;
#63 = DIRECTION ( 'NONE',  ( -0.000000000000000000, -0.000000000000000000, -1.000000000000000000 ) ) ;
#64 = CARTESIAN_POINT ( 'NONE',  ( 2.600000000000000089, 3.184081677783118191E-16, 318.0000000000000000 ) ) ;
#65 = PRODUCT_RELATED_PRODUCT_CATEGORY ( 'detail', '', ( #175 ) ) ;
#66 = ORGANIZATION ( 'NEURÈENÝ', 'NEURÈENÝ', '' ) ;
#67 = PERSON_AND_ORGANIZATION_ROLE ( 'creator' ) ;
#68 = PERSON_AND_ORGANIZATION ( #164, #66 ) ;
#69 = ORIENTED_EDGE ( 'NONE', *, *, #95, .T. ) ;
#70 = ADVANCED_FACE ( 'NONE', ( #234 ), #54, .T. ) ;
#71 = FACE_BOUND ( 'NONE', #217, .T. ) ;
#72 = DIRECTION ( 'NONE',  ( -0.000000000000000000, -0.000000000000000000, -1.000000000000000000 ) ) ;
#73 = ORIENTED_EDGE ( 'NONE', *, *, #108, .F. ) ;
#74 = CLOSED_SHELL ( 'NONE', ( #118, #148, #86, #17, #129, #170, #70 ) ) ;
#75 = CIRCLE ( 'NONE', #229, 5.000000000000000000 ) ;
#76 = DIRECTION ( 'NONE',  ( 0.000000000000000000, 0.000000000000000000, 1.000000000000000000 ) ) ;
#77 = CARTESIAN_POINT ( 'NONE',  ( -5.000000000000000000, 0.000000000000000000, 3.000000000000000000 ) ) ;
#78 = DIRECTION ( 'NONE',  ( -1.000000000000000000, 0.000000000000000000, 0.000000000000000000 ) ) ;
#79 = CALENDAR_DATE ( 2022, 7, 7 ) ;
#80 = FACE_OUTER_BOUND ( 'NONE', #174, .T. ) ;
#81 = CARTESIAN_POINT ( 'NONE',  ( 0.000000000000000000, 0.000000000000000000, 318.0000000000000000 ) ) ;
#82 = PLANE ( 'NONE',  #215 ) ;
#83 = PRODUCT_DEFINITION ( 'NEZNÁMÝ', '', #133, #35 ) ;
#84 =( GEOMETRIC_REPRESENTATION_CONTEXT ( 3 ) GLOBAL_UNCERTAINTY_ASSIGNED_CONTEXT ( ( #11 ) ) GLOBAL_UNIT_ASSIGNED_CONTEXT ( ( #140, #224, #178 ) ) REPRESENTATION_CONTEXT ( 'NONE', 'WORKASPACE' ) );
#85 = APPLICATION_CONTEXT ( 'configuration controlled 3d designs of mechanical parts and assemblies' ) ;
#86 = ADVANCED_FACE ( 'NONE', ( #147 ), #183, .T. ) ;
#87 = AXIS2_PLACEMENT_3D ( 'NONE', #163, #63, #245 ) ;
#88 = CALENDAR_DATE ( 2022, 7, 7 ) ;
#89 = VERTEX_POINT ( 'NONE', #64 ) ;
#90 = ORIENTED_EDGE ( 'NONE', *, *, #182, .T. ) ;
#91 = VECTOR ( 'NONE', #72, 1000.000000000000000 ) ;
#92 = CARTESIAN_POINT ( 'NONE',  ( 2.600000000000000089, 3.184081677783118191E-16, 318.0000000000000000 ) ) ;
#93 = APPROVAL_PERSON_ORGANIZATION ( #120, #247, #5 ) ;
#94 = ORIENTED_EDGE ( 'NONE', *, *, #211, .T. ) ;
#95 = EDGE_CURVE ( 'NONE', #187, #190, #239, .T. ) ;
#96 = CARTESIAN_POINT ( 'NONE',  ( 0.000000000000000000, 0.000000000000000000, 3.000000000000000000 ) ) ;
#97 = CC_DESIGN_DATE_AND_TIME_ASSIGNMENT ( #103, #221, ( #83 ) ) ;
#98 = APPROVAL_DATE_TIME ( #203, #136 ) ;
#99 = CYLINDRICAL_SURFACE ( 'NONE', #102, 2.600000000000000089 ) ;
#100 = APPLICATION_PROTOCOL_DEFINITION ( 'international standard', 'config_control_design', 1994, #85 ) ;
#101 = CARTESIAN_POINT ( 'NONE',  ( 0.000000000000000000, 0.000000000000000000, 0.000000000000000000 ) ) ;
#102 = AXIS2_PLACEMENT_3D ( 'NONE', #165, #4, #121 ) ;
#103 = DATE_AND_TIME ( #142, #52 ) ;
#104 = CARTESIAN_POINT ( 'NONE',  ( 5.000000000000000000, 6.123233995736766282E-16, 3.000000000000000000 ) ) ;
#105 = DIRECTION ( 'NONE',  ( -0.000000000000000000, -0.000000000000000000, -1.000000000000000000 ) ) ;
#106 = EDGE_CURVE ( 'NONE', #116, #111, #127, .T. ) ;
#107 = APPROVAL_STATUS ( 'not_yet_approved' ) ;
#108 = EDGE_CURVE ( 'NONE', #190, #187, #168, .T. ) ;
#109 = SECURITY_CLASSIFICATION ( '', '', #149 ) ;
#110 = APPROVAL ( #107, 'NEURÈENÝ' ) ;
#111 = VERTEX_POINT ( 'NONE', #77 ) ;
#112 = PERSON_AND_ORGANIZATION ( #164, #66 ) ;
#113 = ORIENTED_EDGE ( 'NONE', *, *, #37, .T. ) ;
#114 = CARTESIAN_POINT ( 'NONE',  ( -5.000000000000000000, 0.000000000000000000, 0.000000000000000000 ) ) ;
#115 = EDGE_LOOP ( 'NONE', ( #248, #18, #194, #69 ) ) ;
#116 = VERTEX_POINT ( 'NONE', #158 ) ;
#117 = DIRECTION ( 'NONE',  ( -0.000000000000000000, -0.000000000000000000, -1.000000000000000000 ) ) ;
#118 = ADVANCED_FACE ( 'NONE', ( #80 ), #99, .T. ) ;
#119 = DIRECTION ( 'NONE',  ( 0.000000000000000000, 0.000000000000000000, 1.000000000000000000 ) ) ;
#120 = PERSON_AND_ORGANIZATION ( #164, #66 ) ;
#121 = DIRECTION ( 'NONE',  ( -1.000000000000000000, 0.000000000000000000, 0.000000000000000000 ) ) ;
#122 = PERSON_AND_ORGANIZATION ( #164, #66 ) ;
#123 = LINE ( 'NONE', #104, #47 ) ;
#124 = DIRECTION ( 'NONE',  ( 1.000000000000000000, 0.000000000000000000, 0.000000000000000000 ) ) ;
#125 = EDGE_CURVE ( 'NONE', #111, #34, #241, .T. ) ;
#126 = CARTESIAN_POINT ( 'NONE',  ( 0.000000000000000000, 0.000000000000000000, 3.000000000000000000 ) ) ;
#127 = CIRCLE ( 'NONE', #191, 5.000000000000000000 ) ;
#128 = ADVANCED_BREP_SHAPE_REPRESENTATION ( '53d3', ( #58, #23 ), #84 ) ;
#129 = ADVANCED_FACE ( 'NONE', ( #45 ), #82, .F. ) ;
#130 = PERSON_AND_ORGANIZATION_ROLE ( 'classification_officer' ) ;
#131 = APPROVAL_ROLE ( '' ) ;
#132 = EDGE_LOOP ( 'NONE', ( #53, #235 ) ) ;
#133 = PRODUCT_DEFINITION_FORMATION_WITH_SPECIFIED_SOURCE ( 'LIBOVOLNÝ', '', #175, .NOT_KNOWN. ) ;
#134 = CARTESIAN_POINT ( 'NONE',  ( 0.000000000000000000, 0.000000000000000000, 3.000000000000000000 ) ) ;
#135 = CARTESIAN_POINT ( 'NONE',  ( 0.000000000000000000, 0.000000000000000000, 318.0000000000000000 ) ) ;
#136 = APPROVAL ( #181, 'NEURÈENÝ' ) ;
#137 = AXIS2_PLACEMENT_3D ( 'NONE', #141, #255, #62 ) ;
#138 = EDGE_LOOP ( 'NONE', ( #15, #154, #173, #252 ) ) ;
#139 = LOCAL_TIME ( 19, 45, 3.000000000000000000, #12 ) ;
#140 =( LENGTH_UNIT ( ) NAMED_UNIT ( * ) SI_UNIT ( .MILLI., .METRE. ) );
#141 = CARTESIAN_POINT ( 'NONE',  ( 0.000000000000000000, 0.000000000000000000, 3.000000000000000000 ) ) ;
#142 = CALENDAR_DATE ( 2022, 7, 7 ) ;
#143 = CARTESIAN_POINT ( 'NONE',  ( 0.000000000000000000, 0.000000000000000000, 0.000000000000000000 ) ) ;
#144 = DIRECTION ( 'NONE',  ( 0.000000000000000000, 0.000000000000000000, 1.000000000000000000 ) ) ;
#145 = DIRECTION ( 'NONE',  ( 0.000000000000000000, 0.000000000000000000, 1.000000000000000000 ) ) ;
#146 = CARTESIAN_POINT ( 'NONE',  ( 0.000000000000000000, 0.000000000000000000, 0.000000000000000000 ) ) ;
#147 = FACE_OUTER_BOUND ( 'NONE', #138, .T. ) ;
#148 = ADVANCED_FACE ( 'NONE', ( #40 ), #42, .T. ) ;
#149 = SECURITY_CLASSIFICATION_LEVEL ( 'unclassified' ) ;
#150 = VERTEX_POINT ( 'NONE', #201 ) ;
#151 = ORIENTED_EDGE ( 'NONE', *, *, #182, .F. ) ;
#152 = CC_DESIGN_SECURITY_CLASSIFICATION ( #109, ( #133 ) ) ;
#153 = APPLICATION_CONTEXT ( 'configuration controlled 3d designs of mechanical parts and assemblies' ) ;
#154 = ORIENTED_EDGE ( 'NONE', *, *, #206, .F. ) ;
#155 = ORIENTED_EDGE ( 'NONE', *, *, #195, .T. ) ;
#156 = CC_DESIGN_DATE_AND_TIME_ASSIGNMENT ( #49, #48, ( #109 ) ) ;
#157 = APPLICATION_PROTOCOL_DEFINITION ( 'international standard', 'config_control_design', 1994, #153 ) ;
#158 = CARTESIAN_POINT ( 'NONE',  ( 5.000000000000000000, 6.123233995736766282E-16, 3.000000000000000000 ) ) ;
#159 = AXIS2_PLACEMENT_3D ( 'NONE', #135, #216, #38 ) ;
#160 = PERSON_AND_ORGANIZATION ( #164, #66 ) ;
#161 = DIRECTION ( 'NONE',  ( 1.000000000000000000, 0.000000000000000000, 0.000000000000000000 ) ) ;
#162 = DATE_AND_TIME ( #79, #188 ) ;
#163 = CARTESIAN_POINT ( 'NONE',  ( 0.000000000000000000, 0.000000000000000000, 3.000000000000000000 ) ) ;
#164 = PERSON ( 'NEURÈENÝ', 'NEURÈENÝ', 'NEURÈENÝ', ('NEURÈENÝ'), ('NEURÈENÝ'), ('NEURÈENÝ') ) ;
#165 = CARTESIAN_POINT ( 'NONE',  ( 0.000000000000000000, 0.000000000000000000, 318.0000000000000000 ) ) ;
#166 = PERSON_AND_ORGANIZATION_ROLE ( 'design_owner' ) ;
#167 = LOCAL_TIME ( 19, 45, 3.000000000000000000, #59 ) ;
#168 = CIRCLE ( 'NONE', #137, 2.600000000000000089 ) ;
#169 = PERSON_AND_ORGANIZATION_ROLE ( 'design_supplier' ) ;
#170 = ADVANCED_FACE ( 'NONE', ( #29 ), #2, .T. ) ;
#171 = ORIENTED_EDGE ( 'NONE', *, *, #106, .F. ) ;
#172 = ORIENTED_EDGE ( 'NONE', *, *, #251, .F. ) ;
#173 = ORIENTED_EDGE ( 'NONE', *, *, #125, .T. ) ;
#174 = EDGE_LOOP ( 'NONE', ( #21, #113, #56, #39 ) ) ;
#175 = PRODUCT ( '53d3', '53d3', '', ( #7 ) ) ;
#176 = AXIS2_PLACEMENT_3D ( 'NONE', #134, #214, #36 ) ;
#177 = DIRECTION ( 'NONE',  ( 0.000000000000000000, 0.000000000000000000, 1.000000000000000000 ) ) ;
#178 =( NAMED_UNIT ( * ) SI_UNIT ( $, .STERADIAN. ) SOLID_ANGLE_UNIT ( ) );
#179 = DIRECTION ( 'NONE',  ( -0.000000000000000000, -0.000000000000000000, -1.000000000000000000 ) ) ;
#180 = AXIS2_PLACEMENT_3D ( 'NONE', #126, #6, #41 ) ;
#181 = APPROVAL_STATUS ( 'not_yet_approved' ) ;
#182 = EDGE_CURVE ( 'NONE', #150, #34, #208, .T. ) ;
#183 = CYLINDRICAL_SURFACE ( 'NONE', #180, 5.000000000000000000 ) ;
#184 = CARTESIAN_POINT ( 'NONE',  ( 0.000000000000000000, 0.000000000000000000, 0.000000000000000000 ) ) ;
#185 = LINE ( 'NONE', #186, #8 ) ;
#186 = CARTESIAN_POINT ( 'NONE',  ( -2.600000000000000089, 0.000000000000000000, 318.0000000000000000 ) ) ;
#187 = VERTEX_POINT ( 'NONE', #223 ) ;
#188 = LOCAL_TIME ( 19, 45, 3.000000000000000000, #3 ) ;
#189 = PERSON_AND_ORGANIZATION ( #164, #66 ) ;
#190 = VERTEX_POINT ( 'NONE', #196 ) ;
#191 = AXIS2_PLACEMENT_3D ( 'NONE', #25, #119, #197 ) ;
#192 = PLANE ( 'NONE',  #176 ) ;
#193 = CIRCLE ( 'NONE', #246, 5.000000000000000000 ) ;
#194 = ORIENTED_EDGE ( 'NONE', *, *, #220, .T. ) ;
#195 = EDGE_CURVE ( 'NONE', #116, #150, #123, .T. ) ;
#196 = CARTESIAN_POINT ( 'NONE',  ( 2.600000000000000089, 3.184081677783118191E-16, 3.000000000000000000 ) ) ;
#197 = DIRECTION ( 'NONE',  ( 1.000000000000000000, 0.000000000000000000, 0.000000000000000000 ) ) ;
#198 = APPROVAL_PERSON_ORGANIZATION ( #237, #136, #27 ) ;
#199 = CC_DESIGN_PERSON_AND_ORGANIZATION_ASSIGNMENT ( #122, #166, ( #175 ) ) ;
#200 = APPROVAL_STATUS ( 'not_yet_approved' ) ;
#201 = CARTESIAN_POINT ( 'NONE',  ( 5.000000000000000000, 6.123233995736766282E-16, 0.000000000000000000 ) ) ;
#202 = VECTOR ( 'NONE', #179, 1000.000000000000000 ) ;
#203 = DATE_AND_TIME ( #24, #167 ) ;
#204 = DIRECTION ( 'NONE',  ( 0.000000000000000000, 0.000000000000000000, 1.000000000000000000 ) ) ;
#205 = CARTESIAN_POINT ( 'NONE',  ( -5.000000000000000000, 0.000000000000000000, 3.000000000000000000 ) ) ;
#206 = EDGE_CURVE ( 'NONE', #111, #116, #193, .T. ) ;
#207 = AXIS2_PLACEMENT_3D ( 'NONE', #81, #218, #254 ) ;
#208 = CIRCLE ( 'NONE', #51, 5.000000000000000000 ) ;
#209 = CC_DESIGN_APPROVAL ( #136, ( #83 ) ) ;
#210 = PERSON_AND_ORGANIZATION ( #164, #66 ) ;
#211 = EDGE_CURVE ( 'NONE', #250, #89, #13, .T. ) ;
#212 = EDGE_LOOP ( 'NONE', ( #171, #155, #90, #231 ) ) ;
#213 = LOCAL_TIME ( 19, 45, 3.000000000000000000, #33 ) ;
#214 = DIRECTION ( 'NONE',  ( 0.000000000000000000, 0.000000000000000000, 1.000000000000000000 ) ) ;
#215 = AXIS2_PLACEMENT_3D ( 'NONE', #143, #26, #222 ) ;
#216 = DIRECTION ( 'NONE',  ( 0.000000000000000000, 0.000000000000000000, 1.000000000000000000 ) ) ;
#217 = EDGE_LOOP ( 'NONE', ( #50, #73 ) ) ;
#218 = DIRECTION ( 'NONE',  ( 0.000000000000000000, 0.000000000000000000, 1.000000000000000000 ) ) ;
#219 = CARTESIAN_POINT ( 'NONE',  ( 0.000000000000000000, 0.000000000000000000, 318.0000000000000000 ) ) ;
#220 = EDGE_CURVE ( 'NONE', #250, #187, #185, .T. ) ;
#221 = DATE_TIME_ROLE ( 'creation_date' ) ;
#222 = DIRECTION ( 'NONE',  ( 1.000000000000000000, 0.000000000000000000, -0.000000000000000000 ) ) ;
#223 = CARTESIAN_POINT ( 'NONE',  ( -2.600000000000000089, 0.000000000000000000, 3.000000000000000000 ) ) ;
#224 =( NAMED_UNIT ( * ) PLANE_ANGLE_UNIT ( ) SI_UNIT ( $, .RADIAN. ) );
#225 = DIRECTION ( 'NONE',  ( 0.000000000000000000, 0.000000000000000000, 1.000000000000000000 ) ) ;
#226 = CC_DESIGN_APPROVAL ( #110, ( #109 ) ) ;
#227 = APPROVAL_DATE_TIME ( #31, #110 ) ;
#228 = EDGE_CURVE ( 'NONE', #89, #250, #57, .T. ) ;
#229 = AXIS2_PLACEMENT_3D ( 'NONE', #146, #144, #1 ) ;
#230 = SHAPE_DEFINITION_REPRESENTATION ( #20, #128 ) ;
#231 = ORIENTED_EDGE ( 'NONE', *, *, #125, .F. ) ;
#232 = FACE_OUTER_BOUND ( 'NONE', #132, .T. ) ;
#233 = AXIS2_PLACEMENT_3D ( 'NONE', #60, #204, #28 ) ;
#234 = FACE_OUTER_BOUND ( 'NONE', #249, .T. ) ;
#235 = ORIENTED_EDGE ( 'NONE', *, *, #106, .T. ) ;
#236 = CC_DESIGN_PERSON_AND_ORGANIZATION_ASSIGNMENT ( #112, #67, ( #133 ) ) ;
#237 = PERSON_AND_ORGANIZATION ( #164, #66 ) ;
#238 = DIRECTION ( 'NONE',  ( 1.000000000000000000, 0.000000000000000000, 0.000000000000000000 ) ) ;
#239 = CIRCLE ( 'NONE', #55, 2.600000000000000089 ) ;
#240 = PERSON_AND_ORGANIZATION_ROLE ( 'creator' ) ;
#241 = LINE ( 'NONE', #205, #202 ) ;
#242 = APPROVAL_DATE_TIME ( #162, #247 ) ;
#243 = DIRECTION ( 'NONE',  ( 1.000000000000000000, 0.000000000000000000, 0.000000000000000000 ) ) ;
#244 = CARTESIAN_POINT ( 'NONE',  ( -2.600000000000000089, 0.000000000000000000, 318.0000000000000000 ) ) ;
#245 = DIRECTION ( 'NONE',  ( -1.000000000000000000, 0.000000000000000000, 0.000000000000000000 ) ) ;
#246 = AXIS2_PLACEMENT_3D ( 'NONE', #96, #177, #238 ) ;
#247 = APPROVAL ( #200, 'NEURÈENÝ' ) ;
#248 = ORIENTED_EDGE ( 'NONE', *, *, #37, .F. ) ;
#249 = EDGE_LOOP ( 'NONE', ( #94, #14 ) ) ;
#250 = VERTEX_POINT ( 'NONE', #244 ) ;
#251 = EDGE_CURVE ( 'NONE', #34, #150, #75, .T. ) ;
#252 = ORIENTED_EDGE ( 'NONE', *, *, #251, .T. ) ;
#253 = CC_DESIGN_PERSON_AND_ORGANIZATION_ASSIGNMENT ( #160, #240, ( #83 ) ) ;
#254 = DIRECTION ( 'NONE',  ( 1.000000000000000000, 0.000000000000000000, 0.000000000000000000 ) ) ;
#255 = DIRECTION ( 'NONE',  ( 0.000000000000000000, 0.000000000000000000, 1.000000000000000000 ) ) ;
ENDSEC;
END-ISO-10303-21;
