ISO-10303-21;
HEADER;
FILE_DESCRIPTION (( 'STEP AP203' ),
    '1' );
FILE_NAME ('c57c.STEP',
    '2022-07-07T17:58:01',
    ( '' ),
    ( '' ),
    'SwSTEP 2.0',
    'SolidWorks 2019',
    '' );
FILE_SCHEMA (( 'CONFIG_CONTROL_DESIGN' ));
ENDSEC;

DATA;
#1 = VECTOR ( 'NONE', #12, 1000.000000000000000 ) ;
#2 = DIRECTION ( 'NONE',  ( 0.000000000000000000, 0.000000000000000000, 1.000000000000000000 ) ) ;
#3 = LINE ( 'NONE', #90, #194 ) ;
#4 = DATE_AND_TIME ( #168, #23 ) ;
#5 = DIRECTION ( 'NONE',  ( 1.000000000000000000, 0.000000000000000000, 0.000000000000000000 ) ) ;
#6 = ORIENTED_EDGE ( 'NONE', *, *, #30, .T. ) ;
#7 = AXIS2_PLACEMENT_3D ( 'NONE', #212, #129, #152 ) ;
#8 = DIRECTION ( 'NONE',  ( -0.000000000000000000, -0.000000000000000000, -1.000000000000000000 ) ) ;
#9 = PRODUCT ( 'c57c', 'c57c', '', ( #208 ) ) ;
#10 = ORIENTED_EDGE ( 'NONE', *, *, #85, .F. ) ;
#11 = PRODUCT_RELATED_PRODUCT_CATEGORY ( 'detail', '', ( #9 ) ) ;
#12 = DIRECTION ( 'NONE',  ( -0.000000000000000000, -0.000000000000000000, -1.000000000000000000 ) ) ;
#13 = AXIS2_PLACEMENT_3D ( 'NONE', #131, #166, #76 ) ;
#14 = COORDINATED_UNIVERSAL_TIME_OFFSET ( 1, 0, .AHEAD. ) ;
#15 = VERTEX_POINT ( 'NONE', #173 ) ;
#16 = DATE_AND_TIME ( #206, #195 ) ;
#17 = DIRECTION ( 'NONE',  ( 0.000000000000000000, 0.000000000000000000, 1.000000000000000000 ) ) ;
#18 = LOCAL_TIME ( 19, 58, 1.000000000000000000, #61 ) ;
#19 = PERSON_AND_ORGANIZATION_ROLE ( 'design_supplier' ) ;
#20 = EDGE_CURVE ( 'NONE', #112, #130, #254, .T. ) ;
#21 = ADVANCED_FACE ( 'NONE', ( #41 ), #96, .T. ) ;
#22 = ADVANCED_BREP_SHAPE_REPRESENTATION ( 'c57c', ( #238, #100 ), #251 ) ;
#23 = LOCAL_TIME ( 19, 58, 1.000000000000000000, #217 ) ;
#24 = EDGE_CURVE ( 'NONE', #232, #58, #219, .T. ) ;
#25 = DIRECTION ( 'NONE',  ( 1.000000000000000000, 0.000000000000000000, -0.000000000000000000 ) ) ;
#26 = SHAPE_DEFINITION_REPRESENTATION ( #125, #22 ) ;
#27 = CARTESIAN_POINT ( 'NONE',  ( 0.000000000000000000, 0.000000000000000000, 2.000000000000000000 ) ) ;
#28 = CARTESIAN_POINT ( 'NONE',  ( 0.000000000000000000, 0.000000000000000000, 2.000000000000000000 ) ) ;
#29 = CARTESIAN_POINT ( 'NONE',  ( 0.000000000000000000, 0.000000000000000000, 0.000000000000000000 ) ) ;
#30 = EDGE_CURVE ( 'NONE', #58, #136, #250, .T. ) ;
#31 = ORIENTED_EDGE ( 'NONE', *, *, #162, .T. ) ;
#32 = LOCAL_TIME ( 19, 58, 1.000000000000000000, #159 ) ;
#33 = DIRECTION ( 'NONE',  ( 0.000000000000000000, 0.000000000000000000, 1.000000000000000000 ) ) ;
#34 = EDGE_CURVE ( 'NONE', #248, #15, #182, .T. ) ;
#35 = SECURITY_CLASSIFICATION_LEVEL ( 'unclassified' ) ;
#36 = AXIS2_PLACEMENT_3D ( 'NONE', #225, #17, #83 ) ;
#37 = EDGE_LOOP ( 'NONE', ( #46, #188 ) ) ;
#38 = AXIS2_PLACEMENT_3D ( 'NONE', #92, #163, #5 ) ;
#39 = FACE_OUTER_BOUND ( 'NONE', #81, .T. ) ;
#40 = DIRECTION ( 'NONE',  ( 0.000000000000000000, 0.000000000000000000, 1.000000000000000000 ) ) ;
#41 = FACE_OUTER_BOUND ( 'NONE', #77, .T. ) ;
#42 = PERSON_AND_ORGANIZATION ( #108, #134 ) ;
#43 = EDGE_CURVE ( 'NONE', #136, #224, #148, .T. ) ;
#44 = PERSON_AND_ORGANIZATION ( #108, #134 ) ;
#45 = ADVANCED_FACE ( 'NONE', ( #207, #39 ), #120, .T. ) ;
#46 = ORIENTED_EDGE ( 'NONE', *, *, #162, .F. ) ;
#47 = CC_DESIGN_APPROVAL ( #235, ( #139 ) ) ;
#48 = APPROVAL_DATE_TIME ( #4, #235 ) ;
#49 = AXIS2_PLACEMENT_3D ( 'NONE', #74, #2, #181 ) ;
#50 = FACE_OUTER_BOUND ( 'NONE', #150, .T. ) ;
#51 = ORIENTED_EDGE ( 'NONE', *, *, #155, .T. ) ;
#52 = ORIENTED_EDGE ( 'NONE', *, *, #137, .T. ) ;
#53 = FACE_OUTER_BOUND ( 'NONE', #171, .T. ) ;
#54 = DIRECTION ( 'NONE',  ( 0.000000000000000000, 0.000000000000000000, 1.000000000000000000 ) ) ;
#55 = CARTESIAN_POINT ( 'NONE',  ( 0.000000000000000000, 0.000000000000000000, 252.0000000000000000 ) ) ;
#56 = DIRECTION ( 'NONE',  ( 1.000000000000000000, 0.000000000000000000, 0.000000000000000000 ) ) ;
#57 = VECTOR ( 'NONE', #158, 1000.000000000000000 ) ;
#58 = VERTEX_POINT ( 'NONE', #223 ) ;
#59 = PERSON_AND_ORGANIZATION ( #108, #134 ) ;
#60 = DIRECTION ( 'NONE',  ( 1.000000000000000000, 0.000000000000000000, 0.000000000000000000 ) ) ;
#61 = COORDINATED_UNIVERSAL_TIME_OFFSET ( 1, 0, .AHEAD. ) ;
#62 = ORIENTED_EDGE ( 'NONE', *, *, #85, .T. ) ;
#63 = CC_DESIGN_DATE_AND_TIME_ASSIGNMENT ( #16, #231, ( #145 ) ) ;
#64 = DIRECTION ( 'NONE',  ( 0.000000000000000000, 0.000000000000000000, 1.000000000000000000 ) ) ;
#65 = APPLICATION_PROTOCOL_DEFINITION ( 'international standard', 'config_control_design', 1994, #216 ) ;
#66 = DATE_AND_TIME ( #213, #18 ) ;
#67 = CC_DESIGN_SECURITY_CLASSIFICATION ( #139, ( #93 ) ) ;
#68 = APPROVAL ( #123, 'NEURÈENÝ' ) ;
#69 = FACE_OUTER_BOUND ( 'NONE', #132, .T. ) ;
#70 = PERSON_AND_ORGANIZATION ( #108, #134 ) ;
#71 = CARTESIAN_POINT ( 'NONE',  ( 0.000000000000000000, 0.000000000000000000, 252.0000000000000000 ) ) ;
#72 = AXIS2_PLACEMENT_3D ( 'NONE', #27, #240, #116 ) ;
#73 = ADVANCED_FACE ( 'NONE', ( #241 ), #221, .F. ) ;
#74 = CARTESIAN_POINT ( 'NONE',  ( 0.000000000000000000, 0.000000000000000000, 2.000000000000000000 ) ) ;
#75 = CARTESIAN_POINT ( 'NONE',  ( 0.000000000000000000, 0.000000000000000000, 252.0000000000000000 ) ) ;
#76 = DIRECTION ( 'NONE',  ( -1.000000000000000000, 0.000000000000000000, 0.000000000000000000 ) ) ;
#77 = EDGE_LOOP ( 'NONE', ( #229, #156, #52, #62 ) ) ;
#78 = AXIS2_PLACEMENT_3D ( 'NONE', #203, #33, #198 ) ;
#79 = ORIENTED_EDGE ( 'NONE', *, *, #245, .T. ) ;
#80 = CC_DESIGN_PERSON_AND_ORGANIZATION_ASSIGNMENT ( #117, #186, ( #139 ) ) ;
#81 = EDGE_LOOP ( 'NONE', ( #153, #167 ) ) ;
#82 = DIRECTION ( 'NONE',  ( 0.000000000000000000, 0.000000000000000000, 1.000000000000000000 ) ) ;
#83 = DIRECTION ( 'NONE',  ( 1.000000000000000000, 0.000000000000000000, 0.000000000000000000 ) ) ;
#84 = PERSON_AND_ORGANIZATION ( #108, #134 ) ;
#85 = EDGE_CURVE ( 'NONE', #224, #136, #230, .T. ) ;
#86 = AXIS2_PLACEMENT_3D ( 'NONE', #28, #40, #60 ) ;
#87 = CIRCLE ( 'NONE', #49, 2.500000000000000000 ) ;
#88 = AXIS2_PLACEMENT_3D ( 'NONE', #135, #64, #141 ) ;
#89 = CARTESIAN_POINT ( 'NONE',  ( 0.000000000000000000, 0.000000000000000000, 2.000000000000000000 ) ) ;
#90 = CARTESIAN_POINT ( 'NONE',  ( -2.500000000000000000, 0.000000000000000000, 2.000000000000000000 ) ) ;
#91 = CC_DESIGN_PERSON_AND_ORGANIZATION_ASSIGNMENT ( #143, #160, ( #9 ) ) ;
#92 = CARTESIAN_POINT ( 'NONE',  ( 0.000000000000000000, 0.000000000000000000, 0.000000000000000000 ) ) ;
#93 = PRODUCT_DEFINITION_FORMATION_WITH_SPECIFIED_SOURCE ( 'LIBOVOLNÝ', '', #9, .NOT_KNOWN. ) ;
#94 = DIRECTION ( 'NONE',  ( -0.000000000000000000, -0.000000000000000000, -1.000000000000000000 ) ) ;
#95 = DIRECTION ( 'NONE',  ( -0.000000000000000000, -0.000000000000000000, -1.000000000000000000 ) ) ;
#96 = CYLINDRICAL_SURFACE ( 'NONE', #118, 2.500000000000000000 ) ;
#97 = CARTESIAN_POINT ( 'NONE',  ( 1.250000000000000000, 1.530808498934191571E-16, 252.0000000000000000 ) ) ;
#98 = APPLICATION_CONTEXT ( 'configuration controlled 3d designs of mechanical parts and assemblies' ) ;
#99 = ORIENTED_EDGE ( 'NONE', *, *, #227, .T. ) ;
#100 = AXIS2_PLACEMENT_3D ( 'NONE', #211, #82, #233 ) ;
#101 = CALENDAR_DATE ( 2022, 7, 7 ) ;
#102 = ORIENTED_EDGE ( 'NONE', *, *, #20, .T. ) ;
#103 = APPROVAL_ROLE ( '' ) ;
#104 = CC_DESIGN_DATE_AND_TIME_ASSIGNMENT ( #170, #202, ( #139 ) ) ;
#105 = ORIENTED_EDGE ( 'NONE', *, *, #227, .F. ) ;
#106 = ADVANCED_FACE ( 'NONE', ( #69 ), #147, .T. ) ;
#107 = VECTOR ( 'NONE', #8, 1000.000000000000000 ) ;
#108 = PERSON ( 'NEURÈENÝ', 'NEURÈENÝ', 'NEURÈENÝ', ('NEURÈENÝ'), ('NEURÈENÝ'), ('NEURÈENÝ') ) ;
#109 = APPROVAL_ROLE ( '' ) ;
#110 = CARTESIAN_POINT ( 'NONE',  ( -1.250000000000000000, 0.000000000000000000, 2.000000000000000000 ) ) ;
#111 = DIRECTION ( 'NONE',  ( 0.000000000000000000, 0.000000000000000000, 1.000000000000000000 ) ) ;
#112 = VERTEX_POINT ( 'NONE', #177 ) ;
#113 = FACE_OUTER_BOUND ( 'NONE', #255, .T. ) ;
#114 = AXIS2_PLACEMENT_3D ( 'NONE', #75, #54, #56 ) ;
#115 = ORIENTED_EDGE ( 'NONE', *, *, #137, .F. ) ;
#116 = DIRECTION ( 'NONE',  ( 1.000000000000000000, 0.000000000000000000, 0.000000000000000000 ) ) ;
#117 = PERSON_AND_ORGANIZATION ( #108, #134 ) ;
#118 = AXIS2_PLACEMENT_3D ( 'NONE', #190, #94, #244 ) ;
#119 = AXIS2_PLACEMENT_3D ( 'NONE', #29, #111, #178 ) ;
#120 = PLANE ( 'NONE',  #7 ) ;
#121 = APPROVAL_DATE_TIME ( #142, #68 ) ;
#122 = ORIENTED_EDGE ( 'NONE', *, *, #34, .F. ) ;
#123 = APPROVAL_STATUS ( 'not_yet_approved' ) ;
#124 = CC_DESIGN_PERSON_AND_ORGANIZATION_ASSIGNMENT ( #44, #19, ( #93 ) ) ;
#125 = PRODUCT_DEFINITION_SHAPE ( 'NONE', 'NONE',  #145 ) ;
#126 = DIRECTION ( 'NONE',  ( -0.000000000000000000, -0.000000000000000000, -1.000000000000000000 ) ) ;
#127 = CC_DESIGN_APPROVAL ( #205, ( #93 ) ) ;
#128 = APPROVAL_STATUS ( 'not_yet_approved' ) ;
#129 = DIRECTION ( 'NONE',  ( 0.000000000000000000, 0.000000000000000000, 1.000000000000000000 ) ) ;
#130 = VERTEX_POINT ( 'NONE', #110 ) ;
#131 = CARTESIAN_POINT ( 'NONE',  ( 0.000000000000000000, 0.000000000000000000, 252.0000000000000000 ) ) ;
#132 = EDGE_LOOP ( 'NONE', ( #99, #222 ) ) ;
#133 = CARTESIAN_POINT ( 'NONE',  ( -2.500000000000000000, 0.000000000000000000, 0.000000000000000000 ) ) ;
#134 = ORGANIZATION ( 'NEURÈENÝ', 'NEURÈENÝ', '' ) ;
#135 = CARTESIAN_POINT ( 'NONE',  ( 0.000000000000000000, 0.000000000000000000, 0.000000000000000000 ) ) ;
#136 = VERTEX_POINT ( 'NONE', #200 ) ;
#137 = EDGE_CURVE ( 'NONE', #232, #224, #3, .T. ) ;
#138 = CALENDAR_DATE ( 2022, 7, 7 ) ;
#139 = SECURITY_CLASSIFICATION ( '', '', #35 ) ;
#140 = ORIENTED_EDGE ( 'NONE', *, *, #151, .F. ) ;
#141 = DIRECTION ( 'NONE',  ( 1.000000000000000000, 0.000000000000000000, 0.000000000000000000 ) ) ;
#142 = DATE_AND_TIME ( #138, #32 ) ;
#143 = PERSON_AND_ORGANIZATION ( #108, #134 ) ;
#144 = LOCAL_TIME ( 19, 58, 1.000000000000000000, #14 ) ;
#145 = PRODUCT_DEFINITION ( 'NEZNÁMÝ', '', #93, #204 ) ;
#146 = CARTESIAN_POINT ( 'NONE',  ( -2.500000000000000000, 0.000000000000000000, 2.000000000000000000 ) ) ;
#147 = PLANE ( 'NONE',  #187 ) ;
#148 = CIRCLE ( 'NONE', #88, 2.500000000000000000 ) ;
#149 = DIRECTION ( 'NONE',  ( -1.000000000000000000, 0.000000000000000000, 0.000000000000000000 ) ) ;
#150 = EDGE_LOOP ( 'NONE', ( #165, #105, #79, #31 ) ) ;
#151 = EDGE_CURVE ( 'NONE', #58, #232, #87, .T. ) ;
#152 = DIRECTION ( 'NONE',  ( 1.000000000000000000, 0.000000000000000000, -0.000000000000000000 ) ) ;
#153 = ORIENTED_EDGE ( 'NONE', *, *, #24, .T. ) ;
#154 = APPROVAL_PERSON_ORGANIZATION ( #59, #68, #234 ) ;
#155 = EDGE_CURVE ( 'NONE', #248, #112, #220, .T. ) ;
#156 = ORIENTED_EDGE ( 'NONE', *, *, #24, .F. ) ;
#157 =( LENGTH_UNIT ( ) NAMED_UNIT ( * ) SI_UNIT ( .MILLI., .METRE. ) );
#158 = DIRECTION ( 'NONE',  ( -0.000000000000000000, -0.000000000000000000, -1.000000000000000000 ) ) ;
#159 = COORDINATED_UNIVERSAL_TIME_OFFSET ( 1, 0, .AHEAD. ) ;
#160 = PERSON_AND_ORGANIZATION_ROLE ( 'design_owner' ) ;
#161 = CYLINDRICAL_SURFACE ( 'NONE', #13, 1.250000000000000000 ) ;
#162 = EDGE_CURVE ( 'NONE', #130, #112, #197, .T. ) ;
#163 = DIRECTION ( 'NONE',  ( 0.000000000000000000, 0.000000000000000000, 1.000000000000000000 ) ) ;
#164 = DIRECTION ( 'NONE',  ( -1.000000000000000000, 0.000000000000000000, 0.000000000000000000 ) ) ;
#165 = ORIENTED_EDGE ( 'NONE', *, *, #155, .F. ) ;
#166 = DIRECTION ( 'NONE',  ( -0.000000000000000000, -0.000000000000000000, -1.000000000000000000 ) ) ;
#167 = ORIENTED_EDGE ( 'NONE', *, *, #151, .T. ) ;
#168 = CALENDAR_DATE ( 2022, 7, 7 ) ;
#169 = CARTESIAN_POINT ( 'NONE',  ( 1.250000000000000000, 1.530808498934191571E-16, 252.0000000000000000 ) ) ;
#170 = DATE_AND_TIME ( #101, #144 ) ;
#171 = EDGE_LOOP ( 'NONE', ( #122, #51, #102, #201 ) ) ;
#172 = APPROVAL_STATUS ( 'not_yet_approved' ) ;
#173 = CARTESIAN_POINT ( 'NONE',  ( -1.250000000000000000, 0.000000000000000000, 252.0000000000000000 ) ) ;
#174 = PERSON_AND_ORGANIZATION ( #108, #134 ) ;
#175 = ADVANCED_FACE ( 'NONE', ( #113 ), #246, .T. ) ;
#176 = APPROVAL_PERSON_ORGANIZATION ( #70, #235, #109 ) ;
#177 = CARTESIAN_POINT ( 'NONE',  ( 1.250000000000000000, 1.530808498934191571E-16, 2.000000000000000000 ) ) ;
#178 = DIRECTION ( 'NONE',  ( 1.000000000000000000, 0.000000000000000000, -0.000000000000000000 ) ) ;
#179 = ADVANCED_FACE ( 'NONE', ( #53 ), #161, .T. ) ;
#180 = ORIENTED_EDGE ( 'NONE', *, *, #43, .T. ) ;
#181 = DIRECTION ( 'NONE',  ( 1.000000000000000000, 0.000000000000000000, 0.000000000000000000 ) ) ;
#182 = CIRCLE ( 'NONE', #114, 1.250000000000000000 ) ;
#183 = EDGE_LOOP ( 'NONE', ( #10, #210 ) ) ;
#184 = LINE ( 'NONE', #218, #1 ) ;
#185 = CLOSED_SHELL ( 'NONE', ( #179, #175, #21, #45, #73, #192, #106 ) ) ;
#186 = PERSON_AND_ORGANIZATION_ROLE ( 'classification_officer' ) ;
#187 = AXIS2_PLACEMENT_3D ( 'NONE', #71, #199, #25 ) ;
#188 = ORIENTED_EDGE ( 'NONE', *, *, #20, .F. ) ;
#189 = PERSON_AND_ORGANIZATION_ROLE ( 'creator' ) ;
#190 = CARTESIAN_POINT ( 'NONE',  ( 0.000000000000000000, 0.000000000000000000, 2.000000000000000000 ) ) ;
#191 =( NAMED_UNIT ( * ) SI_UNIT ( $, .STERADIAN. ) SOLID_ANGLE_UNIT ( ) );
#192 = ADVANCED_FACE ( 'NONE', ( #50 ), #243, .T. ) ;
#193 = PERSON_AND_ORGANIZATION_ROLE ( 'creator' ) ;
#194 = VECTOR ( 'NONE', #126, 1000.000000000000000 ) ;
#195 = LOCAL_TIME ( 19, 58, 1.000000000000000000, #252 ) ;
#196 = CC_DESIGN_PERSON_AND_ORGANIZATION_ASSIGNMENT ( #42, #193, ( #93 ) ) ;
#197 = CIRCLE ( 'NONE', #72, 1.250000000000000000 ) ;
#198 = DIRECTION ( 'NONE',  ( 1.000000000000000000, 0.000000000000000000, 0.000000000000000000 ) ) ;
#199 = DIRECTION ( 'NONE',  ( 0.000000000000000000, 0.000000000000000000, 1.000000000000000000 ) ) ;
#200 = CARTESIAN_POINT ( 'NONE',  ( 2.500000000000000000, 3.061616997868383141E-16, 0.000000000000000000 ) ) ;
#201 = ORIENTED_EDGE ( 'NONE', *, *, #245, .F. ) ;
#202 = DATE_TIME_ROLE ( 'classification_date' ) ;
#203 = CARTESIAN_POINT ( 'NONE',  ( 0.000000000000000000, 0.000000000000000000, 252.0000000000000000 ) ) ;
#204 = DESIGN_CONTEXT ( 'detailed design', #216, 'design' ) ;
#205 = APPROVAL ( #172, 'NEURÈENÝ' ) ;
#206 = CALENDAR_DATE ( 2022, 7, 7 ) ;
#207 = FACE_BOUND ( 'NONE', #37, .T. ) ;
#208 = MECHANICAL_CONTEXT ( 'NONE', #98, 'mechanical' ) ;
#209 = CC_DESIGN_PERSON_AND_ORGANIZATION_ASSIGNMENT ( #174, #189, ( #145 ) ) ;
#210 = ORIENTED_EDGE ( 'NONE', *, *, #43, .F. ) ;
#211 = CARTESIAN_POINT ( 'NONE',  ( 0.000000000000000000, 0.000000000000000000, 0.000000000000000000 ) ) ;
#212 = CARTESIAN_POINT ( 'NONE',  ( 0.000000000000000000, 0.000000000000000000, 2.000000000000000000 ) ) ;
#213 = CALENDAR_DATE ( 2022, 7, 7 ) ;
#214 = APPROVAL_DATE_TIME ( #66, #205 ) ;
#215 = AXIS2_PLACEMENT_3D ( 'NONE', #89, #95, #149 ) ;
#216 = APPLICATION_CONTEXT ( 'configuration controlled 3d designs of mechanical parts and assemblies' ) ;
#217 = COORDINATED_UNIVERSAL_TIME_OFFSET ( 1, 0, .AHEAD. ) ;
#218 = CARTESIAN_POINT ( 'NONE',  ( -1.250000000000000000, 0.000000000000000000, 252.0000000000000000 ) ) ;
#219 = CIRCLE ( 'NONE', #36, 2.500000000000000000 ) ;
#220 = LINE ( 'NONE', #169, #107 ) ;
#221 = PLANE ( 'NONE',  #119 ) ;
#222 = ORIENTED_EDGE ( 'NONE', *, *, #34, .T. ) ;
#223 = CARTESIAN_POINT ( 'NONE',  ( 2.500000000000000000, 3.061616997868383141E-16, 2.000000000000000000 ) ) ;
#224 = VERTEX_POINT ( 'NONE', #133 ) ;
#225 = CARTESIAN_POINT ( 'NONE',  ( 0.000000000000000000, 0.000000000000000000, 2.000000000000000000 ) ) ;
#226 = APPROVAL_PERSON_ORGANIZATION ( #84, #205, #103 ) ;
#227 = EDGE_CURVE ( 'NONE', #15, #248, #236, .T. ) ;
#228 = UNCERTAINTY_MEASURE_WITH_UNIT (LENGTH_MEASURE( 1.000000000000000082E-05 ), #157, 'distance_accuracy_value', 'NONE');
#229 = ORIENTED_EDGE ( 'NONE', *, *, #30, .F. ) ;
#230 = CIRCLE ( 'NONE', #38, 2.500000000000000000 ) ;
#231 = DATE_TIME_ROLE ( 'creation_date' ) ;
#232 = VERTEX_POINT ( 'NONE', #146 ) ;
#233 = DIRECTION ( 'NONE',  ( 1.000000000000000000, 0.000000000000000000, 0.000000000000000000 ) ) ;
#234 = APPROVAL_ROLE ( '' ) ;
#235 = APPROVAL ( #128, 'NEURÈENÝ' ) ;
#236 = CIRCLE ( 'NONE', #78, 1.250000000000000000 ) ;
#237 = CC_DESIGN_APPROVAL ( #68, ( #145 ) ) ;
#238 = MANIFOLD_SOLID_BREP ( 'Pøidat vysunutím3', #185 ) ;
#239 = DIRECTION ( 'NONE',  ( -0.000000000000000000, -0.000000000000000000, -1.000000000000000000 ) ) ;
#240 = DIRECTION ( 'NONE',  ( 0.000000000000000000, 0.000000000000000000, 1.000000000000000000 ) ) ;
#241 = FACE_OUTER_BOUND ( 'NONE', #183, .T. ) ;
#242 = CARTESIAN_POINT ( 'NONE',  ( 2.500000000000000000, 3.061616997868383141E-16, 2.000000000000000000 ) ) ;
#243 = CYLINDRICAL_SURFACE ( 'NONE', #247, 1.250000000000000000 ) ;
#244 = DIRECTION ( 'NONE',  ( -1.000000000000000000, 0.000000000000000000, 0.000000000000000000 ) ) ;
#245 = EDGE_CURVE ( 'NONE', #15, #130, #184, .T. ) ;
#246 = CYLINDRICAL_SURFACE ( 'NONE', #215, 2.500000000000000000 ) ;
#247 = AXIS2_PLACEMENT_3D ( 'NONE', #55, #239, #164 ) ;
#248 = VERTEX_POINT ( 'NONE', #97 ) ;
#249 =( NAMED_UNIT ( * ) PLANE_ANGLE_UNIT ( ) SI_UNIT ( $, .RADIAN. ) );
#250 = LINE ( 'NONE', #242, #57 ) ;
#251 =( GEOMETRIC_REPRESENTATION_CONTEXT ( 3 ) GLOBAL_UNCERTAINTY_ASSIGNED_CONTEXT ( ( #228 ) ) GLOBAL_UNIT_ASSIGNED_CONTEXT ( ( #157, #249, #191 ) ) REPRESENTATION_CONTEXT ( 'NONE', 'WORKASPACE' ) );
#252 = COORDINATED_UNIVERSAL_TIME_OFFSET ( 1, 0, .AHEAD. ) ;
#253 = APPLICATION_PROTOCOL_DEFINITION ( 'international standard', 'config_control_design', 1994, #98 ) ;
#254 = CIRCLE ( 'NONE', #86, 1.250000000000000000 ) ;
#255 = EDGE_LOOP ( 'NONE', ( #140, #6, #180, #115 ) ) ;
ENDSEC;
END-ISO-10303-21;
