ISO-10303-21;
HEADER;
FILE_DESCRIPTION (( 'STEP AP203' ),
    '1' );
FILE_NAME ('a476.STEP',
    '2022-07-07T17:15:09',
    ( '' ),
    ( '' ),
    'SwSTEP 2.0',
    'SolidWorks 2019',
    '' );
FILE_SCHEMA (( 'CONFIG_CONTROL_DESIGN' ));
ENDSEC;

DATA;
#1 = APPROVAL_DATE_TIME ( #139, #25 ) ;
#2 = CARTESIAN_POINT ( 'NONE',  ( 0.000000000000000000, 0.000000000000000000, 322.0000000000000000 ) ) ;
#3 = PERSON_AND_ORGANIZATION_ROLE ( 'creator' ) ;
#4 = DIRECTION ( 'NONE',  ( -0.000000000000000000, -0.000000000000000000, -1.000000000000000000 ) ) ;
#5 = CARTESIAN_POINT ( 'NONE',  ( 0.000000000000000000, 0.000000000000000000, 7.000000000000000000 ) ) ;
#6 = DIRECTION ( 'NONE',  ( 1.000000000000000000, 0.000000000000000000, -0.000000000000000000 ) ) ;
#7 = AXIS2_PLACEMENT_3D ( 'NONE', #56, #39, #6 ) ;
#8 = ORIENTED_EDGE ( 'NONE', *, *, #159, .T. ) ;
#9 = DIRECTION ( 'NONE',  ( 1.000000000000000000, 0.000000000000000000, 0.000000000000000000 ) ) ;
#10 = CARTESIAN_POINT ( 'NONE',  ( 6.750000000000000000, 8.266365894244634333E-16, 322.0000000000000000 ) ) ;
#11 = APPROVAL_PERSON_ORGANIZATION ( #157, #25, #221 ) ;
#12 = ADVANCED_FACE ( 'NONE', ( #98 ), #203, .T. ) ;
#13 = CC_DESIGN_APPROVAL ( #25, ( #209 ) ) ;
#14 = ORIENTED_EDGE ( 'NONE', *, *, #212, .T. ) ;
#15 = COORDINATED_UNIVERSAL_TIME_OFFSET ( 1, 0, .AHEAD. ) ;
#16 = FACE_BOUND ( 'NONE', #90, .T. ) ;
#17 = PERSON_AND_ORGANIZATION ( #83, #129 ) ;
#18 = EDGE_CURVE ( 'NONE', #51, #149, #181, .T. ) ;
#19 = DIRECTION ( 'NONE',  ( 0.000000000000000000, 0.000000000000000000, 1.000000000000000000 ) ) ;
#20 = DIRECTION ( 'NONE',  ( 0.000000000000000000, 0.000000000000000000, 1.000000000000000000 ) ) ;
#21 = PLANE ( 'NONE',  #107 ) ;
#22 = APPLICATION_PROTOCOL_DEFINITION ( 'international standard', 'config_control_design', 1994, #53 ) ;
#23 = ORIENTED_EDGE ( 'NONE', *, *, #175, .T. ) ;
#24 = DIRECTION ( 'NONE',  ( -0.000000000000000000, -0.000000000000000000, -1.000000000000000000 ) ) ;
#25 = APPROVAL ( #236, 'NEURÈENÝ' ) ;
#26 = EDGE_LOOP ( 'NONE', ( #96, #182, #49, #177 ) ) ;
#27 = ORIENTED_EDGE ( 'NONE', *, *, #55, .F. ) ;
#28 = VERTEX_POINT ( 'NONE', #204 ) ;
#29 = EDGE_CURVE ( 'NONE', #149, #28, #217, .T. ) ;
#30 = AXIS2_PLACEMENT_3D ( 'NONE', #5, #214, #154 ) ;
#31 = CLOSED_SHELL ( 'NONE', ( #195, #12, #219, #47, #113, #70, #134 ) ) ;
#32 = CC_DESIGN_APPROVAL ( #205, ( #65 ) ) ;
#33 = ADVANCED_BREP_SHAPE_REPRESENTATION ( 'a476', ( #45, #75 ), #251 ) ;
#34 = APPROVAL ( #59, 'NEURÈENÝ' ) ;
#35 = CARTESIAN_POINT ( 'NONE',  ( 6.750000000000000000, 8.266365894244634333E-16, 322.0000000000000000 ) ) ;
#36 = CIRCLE ( 'NONE', #189, 6.750000000000000000 ) ;
#37 = LOCAL_TIME ( 19, 15, 9.000000000000000000, #99 ) ;
#38 = COORDINATED_UNIVERSAL_TIME_OFFSET ( 1, 0, .AHEAD. ) ;
#39 = DIRECTION ( 'NONE',  ( 0.000000000000000000, 0.000000000000000000, 1.000000000000000000 ) ) ;
#40 = MECHANICAL_CONTEXT ( 'NONE', #53, 'mechanical' ) ;
#41 = DIRECTION ( 'NONE',  ( 0.000000000000000000, 0.000000000000000000, 1.000000000000000000 ) ) ;
#42 = ORIENTED_EDGE ( 'NONE', *, *, #74, .T. ) ;
#43 = VECTOR ( 'NONE', #72, 1000.000000000000000 ) ;
#44 = EDGE_LOOP ( 'NONE', ( #147, #8, #23, #163 ) ) ;
#45 = MANIFOLD_SOLID_BREP ( 'Pøidat vysunutím3', #31 ) ;
#46 = APPROVAL_ROLE ( '' ) ;
#47 = ADVANCED_FACE ( 'NONE', ( #16, #156 ), #102, .T. ) ;
#48 = CARTESIAN_POINT ( 'NONE',  ( 0.000000000000000000, 0.000000000000000000, 7.000000000000000000 ) ) ;
#49 = ORIENTED_EDGE ( 'NONE', *, *, #122, .T. ) ;
#50 = APPROVAL_PERSON_ORGANIZATION ( #145, #34, #46 ) ;
#51 = VERTEX_POINT ( 'NONE', #35 ) ;
#52 = LOCAL_TIME ( 19, 15, 9.000000000000000000, #141 ) ;
#53 = APPLICATION_CONTEXT ( 'configuration controlled 3d designs of mechanical parts and assemblies' ) ;
#54 = AXIS2_PLACEMENT_3D ( 'NONE', #206, #24, #207 ) ;
#55 = EDGE_CURVE ( 'NONE', #173, #213, #255, .T. ) ;
#56 = CARTESIAN_POINT ( 'NONE',  ( 0.000000000000000000, 0.000000000000000000, 322.0000000000000000 ) ) ;
#57 = DIRECTION ( 'NONE',  ( 1.000000000000000000, 0.000000000000000000, 0.000000000000000000 ) ) ;
#58 = LOCAL_TIME ( 19, 15, 9.000000000000000000, #15 ) ;
#59 = APPROVAL_STATUS ( 'not_yet_approved' ) ;
#60 = ORIENTED_EDGE ( 'NONE', *, *, #175, .F. ) ;
#61 = PERSON_AND_ORGANIZATION_ROLE ( 'classification_officer' ) ;
#62 = CARTESIAN_POINT ( 'NONE',  ( 0.000000000000000000, 0.000000000000000000, 7.000000000000000000 ) ) ;
#63 = PERSON_AND_ORGANIZATION_ROLE ( 'design_owner' ) ;
#64 = CARTESIAN_POINT ( 'NONE',  ( 0.000000000000000000, 0.000000000000000000, 0.000000000000000000 ) ) ;
#65 = PRODUCT_DEFINITION_FORMATION_WITH_SPECIFIED_SOURCE ( 'LIBOVOLNÝ', '', #248, .NOT_KNOWN. ) ;
#66 = CC_DESIGN_PERSON_AND_ORGANIZATION_ASSIGNMENT ( #162, #61, ( #209 ) ) ;
#67 = CARTESIAN_POINT ( 'NONE',  ( -6.750000000000000000, 0.000000000000000000, 322.0000000000000000 ) ) ;
#68 = CYLINDRICAL_SURFACE ( 'NONE', #165, 6.750000000000000000 ) ;
#69 = ORIENTED_EDGE ( 'NONE', *, *, #131, .T. ) ;
#70 = ADVANCED_FACE ( 'NONE', ( #79 ), #116, .T. ) ;
#71 = ORIENTED_EDGE ( 'NONE', *, *, #95, .F. ) ;
#72 = DIRECTION ( 'NONE',  ( -0.000000000000000000, -0.000000000000000000, -1.000000000000000000 ) ) ;
#73 = CC_DESIGN_DATE_AND_TIME_ASSIGNMENT ( #180, #178, ( #209 ) ) ;
#74 = EDGE_CURVE ( 'NONE', #173, #105, #176, .T. ) ;
#75 = AXIS2_PLACEMENT_3D ( 'NONE', #246, #238, #233 ) ;
#76 = DATE_TIME_ROLE ( 'creation_date' ) ;
#77 = DIRECTION ( 'NONE',  ( -0.000000000000000000, -0.000000000000000000, -1.000000000000000000 ) ) ;
#78 = SHAPE_DEFINITION_REPRESENTATION ( #167, #33 ) ;
#79 = FACE_OUTER_BOUND ( 'NONE', #126, .T. ) ;
#80 = CIRCLE ( 'NONE', #89, 11.00000000000000000 ) ;
#81 = DIRECTION ( 'NONE',  ( -0.000000000000000000, -0.000000000000000000, -1.000000000000000000 ) ) ;
#82 = APPROVAL_ROLE ( '' ) ;
#83 = PERSON ( 'NEURÈENÝ', 'NEURÈENÝ', 'NEURÈENÝ', ('NEURÈENÝ'), ('NEURÈENÝ'), ('NEURÈENÝ') ) ;
#84 = CARTESIAN_POINT ( 'NONE',  ( 11.00000000000000000, 1.347111479062088405E-15, 7.000000000000000000 ) ) ;
#85 = CALENDAR_DATE ( 2022, 7, 7 ) ;
#86 = CC_DESIGN_PERSON_AND_ORGANIZATION_ASSIGNMENT ( #101, #63, ( #248 ) ) ;
#87 = EDGE_LOOP ( 'NONE', ( #243, #222 ) ) ;
#88 = CARTESIAN_POINT ( 'NONE',  ( 0.000000000000000000, 0.000000000000000000, 0.000000000000000000 ) ) ;
#89 = AXIS2_PLACEMENT_3D ( 'NONE', #64, #142, #57 ) ;
#90 = EDGE_LOOP ( 'NONE', ( #121, #60 ) ) ;
#91 = CARTESIAN_POINT ( 'NONE',  ( 0.000000000000000000, 0.000000000000000000, 7.000000000000000000 ) ) ;
#92 = DIRECTION ( 'NONE',  ( -0.000000000000000000, -0.000000000000000000, -1.000000000000000000 ) ) ;
#93 = CARTESIAN_POINT ( 'NONE',  ( 11.00000000000000000, 1.347111479062088405E-15, 7.000000000000000000 ) ) ;
#94 = AXIS2_PLACEMENT_3D ( 'NONE', #88, #106, #166 ) ;
#95 = EDGE_CURVE ( 'NONE', #149, #51, #36, .T. ) ;
#96 = ORIENTED_EDGE ( 'NONE', *, *, #74, .F. ) ;
#97 = APPROVAL_STATUS ( 'not_yet_approved' ) ;
#98 = FACE_OUTER_BOUND ( 'NONE', #26, .T. ) ;
#99 = COORDINATED_UNIVERSAL_TIME_OFFSET ( 1, 0, .AHEAD. ) ;
#100 = DIRECTION ( 'NONE',  ( 1.000000000000000000, 0.000000000000000000, 0.000000000000000000 ) ) ;
#101 = PERSON_AND_ORGANIZATION ( #83, #129 ) ;
#102 = PLANE ( 'NONE',  #250 ) ;
#103 = VERTEX_POINT ( 'NONE', #216 ) ;
#104 = CARTESIAN_POINT ( 'NONE',  ( 0.000000000000000000, 0.000000000000000000, 322.0000000000000000 ) ) ;
#105 = VERTEX_POINT ( 'NONE', #187 ) ;
#106 = DIRECTION ( 'NONE',  ( 0.000000000000000000, 0.000000000000000000, 1.000000000000000000 ) ) ;
#107 = AXIS2_PLACEMENT_3D ( 'NONE', #123, #20, #239 ) ;
#108 = ORIENTED_EDGE ( 'NONE', *, *, #210, .T. ) ;
#109 = DIRECTION ( 'NONE',  ( 0.000000000000000000, 0.000000000000000000, 1.000000000000000000 ) ) ;
#110 = ORIENTED_EDGE ( 'NONE', *, *, #18, .T. ) ;
#111 = CC_DESIGN_PERSON_AND_ORGANIZATION_ASSIGNMENT ( #198, #164, ( #65 ) ) ;
#112 = AXIS2_PLACEMENT_3D ( 'NONE', #184, #119, #201 ) ;
#113 = ADVANCED_FACE ( 'NONE', ( #140 ), #21, .F. ) ;
#114 = AXIS2_PLACEMENT_3D ( 'NONE', #158, #77, #197 ) ;
#115 = APPROVAL_PERSON_ORGANIZATION ( #160, #205, #82 ) ;
#116 = CYLINDRICAL_SURFACE ( 'NONE', #114, 6.750000000000000000 ) ;
#117 = CALENDAR_DATE ( 2022, 7, 7 ) ;
#118 = CC_DESIGN_PERSON_AND_ORGANIZATION_ASSIGNMENT ( #120, #3, ( #168 ) ) ;
#119 = DIRECTION ( 'NONE',  ( -0.000000000000000000, -0.000000000000000000, -1.000000000000000000 ) ) ;
#120 = PERSON_AND_ORGANIZATION ( #83, #129 ) ;
#121 = ORIENTED_EDGE ( 'NONE', *, *, #131, .F. ) ;
#122 = EDGE_CURVE ( 'NONE', #213, #103, #80, .T. ) ;
#123 = CARTESIAN_POINT ( 'NONE',  ( 0.000000000000000000, 0.000000000000000000, 0.000000000000000000 ) ) ;
#124 = CALENDAR_DATE ( 2022, 7, 7 ) ;
#125 = FACE_OUTER_BOUND ( 'NONE', #224, .T. ) ;
#126 = EDGE_LOOP ( 'NONE', ( #171, #71, #225, #69 ) ) ;
#127 = CARTESIAN_POINT ( 'NONE',  ( 11.00000000000000000, 1.347111479062088405E-15, 0.000000000000000000 ) ) ;
#128 = APPLICATION_CONTEXT ( 'configuration controlled 3d designs of mechanical parts and assemblies' ) ;
#129 = ORGANIZATION ( 'NEURÈENÝ', 'NEURÈENÝ', '' ) ;
#130 = ORIENTED_EDGE ( 'NONE', *, *, #212, .F. ) ;
#131 = EDGE_CURVE ( 'NONE', #28, #161, #190, .T. ) ;
#132 = AXIS2_PLACEMENT_3D ( 'NONE', #48, #244, #241 ) ;
#133 = EDGE_LOOP ( 'NONE', ( #169, #110 ) ) ;
#134 = ADVANCED_FACE ( 'NONE', ( #137 ), #220, .T. ) ;
#135 = APPROVAL_DATE_TIME ( #183, #34 ) ;
#136 = LOCAL_TIME ( 19, 15, 9.000000000000000000, #38 ) ;
#137 = FACE_OUTER_BOUND ( 'NONE', #133, .T. ) ;
#138 = DIRECTION ( 'NONE',  ( 1.000000000000000000, 0.000000000000000000, 0.000000000000000000 ) ) ;
#139 = DATE_AND_TIME ( #254, #58 ) ;
#140 = FACE_OUTER_BOUND ( 'NONE', #87, .T. ) ;
#141 = COORDINATED_UNIVERSAL_TIME_OFFSET ( 1, 0, .AHEAD. ) ;
#142 = DIRECTION ( 'NONE',  ( 0.000000000000000000, 0.000000000000000000, 1.000000000000000000 ) ) ;
#143 = VECTOR ( 'NONE', #81, 1000.000000000000000 ) ;
#144 = CIRCLE ( 'NONE', #132, 11.00000000000000000 ) ;
#145 = PERSON_AND_ORGANIZATION ( #83, #129 ) ;
#146 = LINE ( 'NONE', #10, #152 ) ;
#147 = ORIENTED_EDGE ( 'NONE', *, *, #18, .F. ) ;
#148 = CYLINDRICAL_SURFACE ( 'NONE', #54, 11.00000000000000000 ) ;
#149 = VERTEX_POINT ( 'NONE', #67 ) ;
#150 = CARTESIAN_POINT ( 'NONE',  ( -11.00000000000000000, 0.000000000000000000, 7.000000000000000000 ) ) ;
#151 = AXIS2_PLACEMENT_3D ( 'NONE', #62, #41, #100 ) ;
#152 = VECTOR ( 'NONE', #192, 1000.000000000000000 ) ;
#153 = CC_DESIGN_PERSON_AND_ORGANIZATION_ASSIGNMENT ( #17, #252, ( #65 ) ) ;
#154 = DIRECTION ( 'NONE',  ( 1.000000000000000000, 0.000000000000000000, 0.000000000000000000 ) ) ;
#155 = CALENDAR_DATE ( 2022, 7, 7 ) ;
#156 = FACE_OUTER_BOUND ( 'NONE', #245, .T. ) ;
#157 = PERSON_AND_ORGANIZATION ( #83, #129 ) ;
#158 = CARTESIAN_POINT ( 'NONE',  ( 0.000000000000000000, 0.000000000000000000, 322.0000000000000000 ) ) ;
#159 = EDGE_CURVE ( 'NONE', #51, #161, #146, .T. ) ;
#160 = PERSON_AND_ORGANIZATION ( #83, #129 ) ;
#161 = VERTEX_POINT ( 'NONE', #223 ) ;
#162 = PERSON_AND_ORGANIZATION ( #83, #129 ) ;
#163 = ORIENTED_EDGE ( 'NONE', *, *, #29, .F. ) ;
#164 = PERSON_AND_ORGANIZATION_ROLE ( 'design_supplier' ) ;
#165 = AXIS2_PLACEMENT_3D ( 'NONE', #104, #92, #242 ) ;
#166 = DIRECTION ( 'NONE',  ( 1.000000000000000000, 0.000000000000000000, 0.000000000000000000 ) ) ;
#167 = PRODUCT_DEFINITION_SHAPE ( 'NONE', 'NONE',  #168 ) ;
#168 = PRODUCT_DEFINITION ( 'NEZNÁMÝ', '', #65, #186 ) ;
#169 = ORIENTED_EDGE ( 'NONE', *, *, #95, .T. ) ;
#170 = FACE_OUTER_BOUND ( 'NONE', #44, .T. ) ;
#171 = ORIENTED_EDGE ( 'NONE', *, *, #159, .F. ) ;
#172 = LINE ( 'NONE', #150, #43 ) ;
#173 = VERTEX_POINT ( 'NONE', #93 ) ;
#174 = EDGE_CURVE ( 'NONE', #105, #103, #172, .T. ) ;
#175 = EDGE_CURVE ( 'NONE', #161, #28, #196, .T. ) ;
#176 = CIRCLE ( 'NONE', #151, 11.00000000000000000 ) ;
#177 = ORIENTED_EDGE ( 'NONE', *, *, #174, .F. ) ;
#178 = DATE_TIME_ROLE ( 'classification_date' ) ;
#179 = DIRECTION ( 'NONE',  ( 1.000000000000000000, 0.000000000000000000, -0.000000000000000000 ) ) ;
#180 = DATE_AND_TIME ( #124, #37 ) ;
#181 = CIRCLE ( 'NONE', #211, 6.750000000000000000 ) ;
#182 = ORIENTED_EDGE ( 'NONE', *, *, #55, .T. ) ;
#183 = DATE_AND_TIME ( #85, #249 ) ;
#184 = CARTESIAN_POINT ( 'NONE',  ( 0.000000000000000000, 0.000000000000000000, 7.000000000000000000 ) ) ;
#185 = COORDINATED_UNIVERSAL_TIME_OFFSET ( 1, 0, .AHEAD. ) ;
#186 = DESIGN_CONTEXT ( 'detailed design', #128, 'design' ) ;
#187 = CARTESIAN_POINT ( 'NONE',  ( -11.00000000000000000, 0.000000000000000000, 7.000000000000000000 ) ) ;
#188 =( NAMED_UNIT ( * ) PLANE_ANGLE_UNIT ( ) SI_UNIT ( $, .RADIAN. ) );
#189 = AXIS2_PLACEMENT_3D ( 'NONE', #2, #235, #138 ) ;
#190 = CIRCLE ( 'NONE', #30, 6.750000000000000000 ) ;
#191 =( NAMED_UNIT ( * ) SI_UNIT ( $, .STERADIAN. ) SOLID_ANGLE_UNIT ( ) );
#192 = DIRECTION ( 'NONE',  ( -0.000000000000000000, -0.000000000000000000, -1.000000000000000000 ) ) ;
#193 = CIRCLE ( 'NONE', #94, 11.00000000000000000 ) ;
#194 = CC_DESIGN_APPROVAL ( #34, ( #168 ) ) ;
#195 = ADVANCED_FACE ( 'NONE', ( #170 ), #68, .T. ) ;
#196 = CIRCLE ( 'NONE', #234, 6.750000000000000000 ) ;
#197 = DIRECTION ( 'NONE',  ( -1.000000000000000000, 0.000000000000000000, 0.000000000000000000 ) ) ;
#198 = PERSON_AND_ORGANIZATION ( #83, #129 ) ;
#199 = CARTESIAN_POINT ( 'NONE',  ( 0.000000000000000000, 0.000000000000000000, 7.000000000000000000 ) ) ;
#200 = APPROVAL_DATE_TIME ( #231, #205 ) ;
#201 = DIRECTION ( 'NONE',  ( -1.000000000000000000, 0.000000000000000000, 0.000000000000000000 ) ) ;
#202 = UNCERTAINTY_MEASURE_WITH_UNIT (LENGTH_MEASURE( 1.000000000000000082E-05 ), #227, 'distance_accuracy_value', 'NONE');
#203 = CYLINDRICAL_SURFACE ( 'NONE', #112, 11.00000000000000000 ) ;
#204 = CARTESIAN_POINT ( 'NONE',  ( -6.750000000000000000, 0.000000000000000000, 7.000000000000000000 ) ) ;
#205 = APPROVAL ( #97, 'NEURÈENÝ' ) ;
#206 = CARTESIAN_POINT ( 'NONE',  ( 0.000000000000000000, 0.000000000000000000, 7.000000000000000000 ) ) ;
#207 = DIRECTION ( 'NONE',  ( -1.000000000000000000, 0.000000000000000000, 0.000000000000000000 ) ) ;
#208 = ORIENTED_EDGE ( 'NONE', *, *, #174, .T. ) ;
#209 = SECURITY_CLASSIFICATION ( '', '', #240 ) ;
#210 = EDGE_CURVE ( 'NONE', #103, #213, #193, .T. ) ;
#211 = AXIS2_PLACEMENT_3D ( 'NONE', #253, #230, #237 ) ;
#212 = EDGE_CURVE ( 'NONE', #105, #173, #144, .T. ) ;
#213 = VERTEX_POINT ( 'NONE', #127 ) ;
#214 = DIRECTION ( 'NONE',  ( 0.000000000000000000, 0.000000000000000000, 1.000000000000000000 ) ) ;
#215 = APPLICATION_PROTOCOL_DEFINITION ( 'international standard', 'config_control_design', 1994, #128 ) ;
#216 = CARTESIAN_POINT ( 'NONE',  ( -11.00000000000000000, 0.000000000000000000, 0.000000000000000000 ) ) ;
#217 = LINE ( 'NONE', #232, #228 ) ;
#218 = DATE_AND_TIME ( #155, #52 ) ;
#219 = ADVANCED_FACE ( 'NONE', ( #125 ), #148, .T. ) ;
#220 = PLANE ( 'NONE',  #7 ) ;
#221 = APPROVAL_ROLE ( '' ) ;
#222 = ORIENTED_EDGE ( 'NONE', *, *, #122, .F. ) ;
#223 = CARTESIAN_POINT ( 'NONE',  ( 6.750000000000000000, 8.266365894244634333E-16, 7.000000000000000000 ) ) ;
#224 = EDGE_LOOP ( 'NONE', ( #27, #130, #208, #108 ) ) ;
#225 = ORIENTED_EDGE ( 'NONE', *, *, #29, .T. ) ;
#226 = PRODUCT_RELATED_PRODUCT_CATEGORY ( 'detail', '', ( #248 ) ) ;
#227 =( LENGTH_UNIT ( ) NAMED_UNIT ( * ) SI_UNIT ( .MILLI., .METRE. ) );
#228 = VECTOR ( 'NONE', #4, 1000.000000000000000 ) ;
#229 = CC_DESIGN_SECURITY_CLASSIFICATION ( #209, ( #65 ) ) ;
#230 = DIRECTION ( 'NONE',  ( 0.000000000000000000, 0.000000000000000000, 1.000000000000000000 ) ) ;
#231 = DATE_AND_TIME ( #117, #136 ) ;
#232 = CARTESIAN_POINT ( 'NONE',  ( -6.750000000000000000, 0.000000000000000000, 322.0000000000000000 ) ) ;
#233 = DIRECTION ( 'NONE',  ( 1.000000000000000000, 0.000000000000000000, 0.000000000000000000 ) ) ;
#234 = AXIS2_PLACEMENT_3D ( 'NONE', #91, #109, #9 ) ;
#235 = DIRECTION ( 'NONE',  ( 0.000000000000000000, 0.000000000000000000, 1.000000000000000000 ) ) ;
#236 = APPROVAL_STATUS ( 'not_yet_approved' ) ;
#237 = DIRECTION ( 'NONE',  ( 1.000000000000000000, 0.000000000000000000, 0.000000000000000000 ) ) ;
#238 = DIRECTION ( 'NONE',  ( 0.000000000000000000, 0.000000000000000000, 1.000000000000000000 ) ) ;
#239 = DIRECTION ( 'NONE',  ( 1.000000000000000000, 0.000000000000000000, -0.000000000000000000 ) ) ;
#240 = SECURITY_CLASSIFICATION_LEVEL ( 'unclassified' ) ;
#241 = DIRECTION ( 'NONE',  ( 1.000000000000000000, 0.000000000000000000, 0.000000000000000000 ) ) ;
#242 = DIRECTION ( 'NONE',  ( -1.000000000000000000, 0.000000000000000000, 0.000000000000000000 ) ) ;
#243 = ORIENTED_EDGE ( 'NONE', *, *, #210, .F. ) ;
#244 = DIRECTION ( 'NONE',  ( 0.000000000000000000, 0.000000000000000000, 1.000000000000000000 ) ) ;
#245 = EDGE_LOOP ( 'NONE', ( #14, #42 ) ) ;
#246 = CARTESIAN_POINT ( 'NONE',  ( 0.000000000000000000, 0.000000000000000000, 0.000000000000000000 ) ) ;
#247 = CC_DESIGN_DATE_AND_TIME_ASSIGNMENT ( #218, #76, ( #168 ) ) ;
#248 = PRODUCT ( 'a476', 'a476', '', ( #40 ) ) ;
#249 = LOCAL_TIME ( 19, 15, 9.000000000000000000, #185 ) ;
#250 = AXIS2_PLACEMENT_3D ( 'NONE', #199, #19, #179 ) ;
#251 =( GEOMETRIC_REPRESENTATION_CONTEXT ( 3 ) GLOBAL_UNCERTAINTY_ASSIGNED_CONTEXT ( ( #202 ) ) GLOBAL_UNIT_ASSIGNED_CONTEXT ( ( #227, #188, #191 ) ) REPRESENTATION_CONTEXT ( 'NONE', 'WORKASPACE' ) );
#252 = PERSON_AND_ORGANIZATION_ROLE ( 'creator' ) ;
#253 = CARTESIAN_POINT ( 'NONE',  ( 0.000000000000000000, 0.000000000000000000, 322.0000000000000000 ) ) ;
#254 = CALENDAR_DATE ( 2022, 7, 7 ) ;
#255 = LINE ( 'NONE', #84, #143 ) ;
ENDSEC;
END-ISO-10303-21;
