ISO-10303-21;
HEADER;
FILE_DESCRIPTION (( 'STEP AP203' ),
    '1' );
FILE_NAME ('a616.STEP',
    '2022-07-07T17:24:28',
    ( '' ),
    ( '' ),
    'SwSTEP 2.0',
    'SolidWorks 2019',
    '' );
FILE_SCHEMA (( 'CONFIG_CONTROL_DESIGN' ));
ENDSEC;

DATA;
#1 = CIRCLE ( 'NONE', #171, 8.000000000000000000 ) ;
#2 = DIRECTION ( 'NONE',  ( 0.000000000000000000, 0.000000000000000000, 1.000000000000000000 ) ) ;
#3 = DIRECTION ( 'NONE',  ( -0.000000000000000000, -0.000000000000000000, -1.000000000000000000 ) ) ;
#4 = CC_DESIGN_PERSON_AND_ORGANIZATION_ASSIGNMENT ( #69, #128, ( #17 ) ) ;
#5 = FACE_OUTER_BOUND ( 'NONE', #174, .T. ) ;
#6 = DIRECTION ( 'NONE',  ( 1.000000000000000000, 0.000000000000000000, 0.000000000000000000 ) ) ;
#7 = LINE ( 'NONE', #38, #206 ) ;
#8 = DIRECTION ( 'NONE',  ( 0.000000000000000000, 0.000000000000000000, 1.000000000000000000 ) ) ;
#9 = DIRECTION ( 'NONE',  ( 0.000000000000000000, 0.000000000000000000, 1.000000000000000000 ) ) ;
#10 = LOCAL_TIME ( 19, 24, 28.00000000000000000, #178 ) ;
#11 = CYLINDRICAL_SURFACE ( 'NONE', #48, 5.250000000000000000 ) ;
#12 = VECTOR ( 'NONE', #203, 1000.000000000000000 ) ;
#13 = APPROVAL_ROLE ( '' ) ;
#14 = PERSON_AND_ORGANIZATION_ROLE ( 'design_supplier' ) ;
#15 = CIRCLE ( 'NONE', #68, 5.250000000000000000 ) ;
#16 = COORDINATED_UNIVERSAL_TIME_OFFSET ( 1, 0, .AHEAD. ) ;
#17 = PRODUCT_DEFINITION_FORMATION_WITH_SPECIFIED_SOURCE ( 'LIBOVOLNÝ', '', #124, .NOT_KNOWN. ) ;
#18 = CARTESIAN_POINT ( 'NONE',  ( 8.000000000000000000, 9.797174393178825657E-16, 0.000000000000000000 ) ) ;
#19 = ORIENTED_EDGE ( 'NONE', *, *, #230, .F. ) ;
#20 = EDGE_CURVE ( 'NONE', #46, #253, #161, .T. ) ;
#21 = AXIS2_PLACEMENT_3D ( 'NONE', #146, #112, #209 ) ;
#22 = PLANE ( 'NONE',  #80 ) ;
#23 = ADVANCED_BREP_SHAPE_REPRESENTATION ( 'a616', ( #220, #196 ), #41 ) ;
#24 = ORIENTED_EDGE ( 'NONE', *, *, #111, .F. ) ;
#25 = PLANE ( 'NONE',  #90 ) ;
#26 = AXIS2_PLACEMENT_3D ( 'NONE', #208, #101, #114 ) ;
#27 = CYLINDRICAL_SURFACE ( 'NONE', #21, 5.250000000000000000 ) ;
#28 = AXIS2_PLACEMENT_3D ( 'NONE', #150, #45, #148 ) ;
#29 = DIRECTION ( 'NONE',  ( 1.000000000000000000, 0.000000000000000000, 0.000000000000000000 ) ) ;
#30 = ORIENTED_EDGE ( 'NONE', *, *, #159, .T. ) ;
#31 = ADVANCED_FACE ( 'NONE', ( #102 ), #25, .F. ) ;
#32 = LOCAL_TIME ( 19, 24, 28.00000000000000000, #234 ) ;
#33 = PERSON_AND_ORGANIZATION ( #177, #49 ) ;
#34 = ORIENTED_EDGE ( 'NONE', *, *, #170, .T. ) ;
#35 = APPROVAL ( #107, 'NEURÈENÝ' ) ;
#36 = CC_DESIGN_DATE_AND_TIME_ASSIGNMENT ( #176, #50, ( #133 ) ) ;
#37 = CARTESIAN_POINT ( 'NONE',  ( 0.000000000000000000, 0.000000000000000000, 205.0000000000000284 ) ) ;
#38 = CARTESIAN_POINT ( 'NONE',  ( 5.250000000000000000, 6.429395695523604153E-16, 205.0000000000000284 ) ) ;
#39 = CYLINDRICAL_SURFACE ( 'NONE', #142, 8.000000000000000000 ) ;
#40 = ORIENTED_EDGE ( 'NONE', *, *, #170, .F. ) ;
#41 =( GEOMETRIC_REPRESENTATION_CONTEXT ( 3 ) GLOBAL_UNCERTAINTY_ASSIGNED_CONTEXT ( ( #136 ) ) GLOBAL_UNIT_ASSIGNED_CONTEXT ( ( #181, #164, #244 ) ) REPRESENTATION_CONTEXT ( 'NONE', 'WORKASPACE' ) );
#42 = ORIENTED_EDGE ( 'NONE', *, *, #123, .T. ) ;
#43 = DIRECTION ( 'NONE',  ( -1.000000000000000000, 0.000000000000000000, 0.000000000000000000 ) ) ;
#44 = CARTESIAN_POINT ( 'NONE',  ( 8.000000000000000000, 9.797174393178825657E-16, 5.000000000000000000 ) ) ;
#45 = DIRECTION ( 'NONE',  ( 0.000000000000000000, 0.000000000000000000, 1.000000000000000000 ) ) ;
#46 = VERTEX_POINT ( 'NONE', #184 ) ;
#47 = ORIENTED_EDGE ( 'NONE', *, *, #111, .T. ) ;
#48 = AXIS2_PLACEMENT_3D ( 'NONE', #243, #98, #43 ) ;
#49 = ORGANIZATION ( 'NEURÈENÝ', 'NEURÈENÝ', '' ) ;
#50 = DATE_TIME_ROLE ( 'classification_date' ) ;
#51 = APPROVAL_DATE_TIME ( #152, #35 ) ;
#52 = CALENDAR_DATE ( 2022, 7, 7 ) ;
#53 = PERSON_AND_ORGANIZATION ( #177, #49 ) ;
#54 = CARTESIAN_POINT ( 'NONE',  ( 0.000000000000000000, 0.000000000000000000, 205.0000000000000284 ) ) ;
#55 = CARTESIAN_POINT ( 'NONE',  ( 0.000000000000000000, 0.000000000000000000, 5.000000000000000000 ) ) ;
#56 = ORIENTED_EDGE ( 'NONE', *, *, #20, .T. ) ;
#57 = EDGE_LOOP ( 'NONE', ( #121, #30, #84, #151 ) ) ;
#58 = LOCAL_TIME ( 19, 24, 28.00000000000000000, #16 ) ;
#59 = DIRECTION ( 'NONE',  ( 1.000000000000000000, 0.000000000000000000, -0.000000000000000000 ) ) ;
#60 = EDGE_CURVE ( 'NONE', #140, #195, #145, .T. ) ;
#61 = DIRECTION ( 'NONE',  ( -0.000000000000000000, -0.000000000000000000, -1.000000000000000000 ) ) ;
#62 = ORIENTED_EDGE ( 'NONE', *, *, #159, .F. ) ;
#63 = AXIS2_PLACEMENT_3D ( 'NONE', #246, #8, #29 ) ;
#64 = CALENDAR_DATE ( 2022, 7, 7 ) ;
#65 = ORIENTED_EDGE ( 'NONE', *, *, #123, .F. ) ;
#66 = COORDINATED_UNIVERSAL_TIME_OFFSET ( 1, 0, .AHEAD. ) ;
#67 = ADVANCED_FACE ( 'NONE', ( #223 ), #11, .T. ) ;
#68 = AXIS2_PLACEMENT_3D ( 'NONE', #242, #188, #225 ) ;
#69 = PERSON_AND_ORGANIZATION ( #177, #49 ) ;
#70 = ORIENTED_EDGE ( 'NONE', *, *, #214, .F. ) ;
#71 = FACE_OUTER_BOUND ( 'NONE', #193, .T. ) ;
#72 = CARTESIAN_POINT ( 'NONE',  ( 0.000000000000000000, 0.000000000000000000, 0.000000000000000000 ) ) ;
#73 = DESIGN_CONTEXT ( 'detailed design', #126, 'design' ) ;
#74 = DIRECTION ( 'NONE',  ( -0.000000000000000000, -0.000000000000000000, -1.000000000000000000 ) ) ;
#75 = FACE_OUTER_BOUND ( 'NONE', #118, .T. ) ;
#76 = FACE_OUTER_BOUND ( 'NONE', #218, .T. ) ;
#77 = DIRECTION ( 'NONE',  ( 1.000000000000000000, 0.000000000000000000, 0.000000000000000000 ) ) ;
#78 = DIRECTION ( 'NONE',  ( -1.000000000000000000, 0.000000000000000000, 0.000000000000000000 ) ) ;
#79 = ORIENTED_EDGE ( 'NONE', *, *, #237, .T. ) ;
#80 = AXIS2_PLACEMENT_3D ( 'NONE', #54, #9, #141 ) ;
#81 = CC_DESIGN_APPROVAL ( #35, ( #17 ) ) ;
#82 = APPROVAL ( #213, 'NEURÈENÝ' ) ;
#83 = APPROVAL_DATE_TIME ( #131, #82 ) ;
#84 = ORIENTED_EDGE ( 'NONE', *, *, #110, .T. ) ;
#85 = PERSON_AND_ORGANIZATION ( #177, #49 ) ;
#86 = PERSON_AND_ORGANIZATION_ROLE ( 'classification_officer' ) ;
#87 = APPLICATION_CONTEXT ( 'configuration controlled 3d designs of mechanical parts and assemblies' ) ;
#88 = PERSON_AND_ORGANIZATION ( #177, #49 ) ;
#89 = CIRCLE ( 'NONE', #155, 5.250000000000000000 ) ;
#90 = AXIS2_PLACEMENT_3D ( 'NONE', #72, #95, #249 ) ;
#91 = EDGE_CURVE ( 'NONE', #204, #140, #1, .T. ) ;
#92 = CARTESIAN_POINT ( 'NONE',  ( -5.250000000000000000, 0.000000000000000000, 5.000000000000000000 ) ) ;
#93 = LINE ( 'NONE', #44, #137 ) ;
#94 = DIRECTION ( 'NONE',  ( 1.000000000000000000, 0.000000000000000000, 0.000000000000000000 ) ) ;
#95 = DIRECTION ( 'NONE',  ( 0.000000000000000000, 0.000000000000000000, 1.000000000000000000 ) ) ;
#96 = ORIENTED_EDGE ( 'NONE', *, *, #20, .F. ) ;
#97 = APPLICATION_PROTOCOL_DEFINITION ( 'international standard', 'config_control_design', 1994, #87 ) ;
#98 = DIRECTION ( 'NONE',  ( -0.000000000000000000, -0.000000000000000000, -1.000000000000000000 ) ) ;
#99 = AXIS2_PLACEMENT_3D ( 'NONE', #229, #211, #59 ) ;
#100 = DIRECTION ( 'NONE',  ( 1.000000000000000000, 0.000000000000000000, 0.000000000000000000 ) ) ;
#101 = DIRECTION ( 'NONE',  ( 0.000000000000000000, 0.000000000000000000, 1.000000000000000000 ) ) ;
#102 = FACE_OUTER_BOUND ( 'NONE', #163, .T. ) ;
#103 = EDGE_LOOP ( 'NONE', ( #70, #192 ) ) ;
#104 = CIRCLE ( 'NONE', #63, 8.000000000000000000 ) ;
#105 = CC_DESIGN_APPROVAL ( #245, ( #224 ) ) ;
#106 = ADVANCED_FACE ( 'NONE', ( #210 ), #39, .T. ) ;
#107 = APPROVAL_STATUS ( 'not_yet_approved' ) ;
#108 = CIRCLE ( 'NONE', #28, 8.000000000000000000 ) ;
#109 = APPROVAL_STATUS ( 'not_yet_approved' ) ;
#110 = EDGE_CURVE ( 'NONE', #222, #195, #186, .T. ) ;
#111 = EDGE_CURVE ( 'NONE', #195, #222, #104, .T. ) ;
#112 = DIRECTION ( 'NONE',  ( -0.000000000000000000, -0.000000000000000000, -1.000000000000000000 ) ) ;
#113 = DIRECTION ( 'NONE',  ( 0.000000000000000000, 0.000000000000000000, 1.000000000000000000 ) ) ;
#114 = DIRECTION ( 'NONE',  ( 1.000000000000000000, 0.000000000000000000, 0.000000000000000000 ) ) ;
#115 = APPROVAL_PERSON_ORGANIZATION ( #53, #245, #254 ) ;
#116 = ORIENTED_EDGE ( 'NONE', *, *, #60, .T. ) ;
#117 = CARTESIAN_POINT ( 'NONE',  ( 0.000000000000000000, 0.000000000000000000, 0.000000000000000000 ) ) ;
#118 = EDGE_LOOP ( 'NONE', ( #42, #79 ) ) ;
#119 = DIRECTION ( 'NONE',  ( 0.000000000000000000, 0.000000000000000000, 1.000000000000000000 ) ) ;
#120 = DIRECTION ( 'NONE',  ( -0.000000000000000000, -0.000000000000000000, -1.000000000000000000 ) ) ;
#121 = ORIENTED_EDGE ( 'NONE', *, *, #91, .F. ) ;
#122 = AXIS2_PLACEMENT_3D ( 'NONE', #205, #2, #100 ) ;
#123 = EDGE_CURVE ( 'NONE', #46, #158, #216, .T. ) ;
#124 = PRODUCT ( 'a616', 'a616', '', ( #166 ) ) ;
#125 = ADVANCED_FACE ( 'NONE', ( #187, #76 ), #167, .T. ) ;
#126 = APPLICATION_CONTEXT ( 'configuration controlled 3d designs of mechanical parts and assemblies' ) ;
#127 = CALENDAR_DATE ( 2022, 7, 7 ) ;
#128 = PERSON_AND_ORGANIZATION_ROLE ( 'creator' ) ;
#129 = VECTOR ( 'NONE', #3, 1000.000000000000000 ) ;
#130 = CC_DESIGN_PERSON_AND_ORGANIZATION_ASSIGNMENT ( #85, #86, ( #133 ) ) ;
#131 = DATE_AND_TIME ( #52, #175 ) ;
#132 = AXIS2_PLACEMENT_3D ( 'NONE', #183, #120, #228 ) ;
#133 = SECURITY_CLASSIFICATION ( '', '', #239 ) ;
#134 = APPROVAL_DATE_TIME ( #236, #245 ) ;
#135 = PERSON_AND_ORGANIZATION ( #177, #49 ) ;
#136 = UNCERTAINTY_MEASURE_WITH_UNIT (LENGTH_MEASURE( 1.000000000000000082E-05 ), #181, 'distance_accuracy_value', 'NONE');
#137 = VECTOR ( 'NONE', #61, 1000.000000000000000 ) ;
#138 = CC_DESIGN_PERSON_AND_ORGANIZATION_ASSIGNMENT ( #200, #14, ( #17 ) ) ;
#139 = DIRECTION ( 'NONE',  ( -0.000000000000000000, -0.000000000000000000, -1.000000000000000000 ) ) ;
#140 = VERTEX_POINT ( 'NONE', #147 ) ;
#141 = DIRECTION ( 'NONE',  ( 1.000000000000000000, 0.000000000000000000, -0.000000000000000000 ) ) ;
#142 = AXIS2_PLACEMENT_3D ( 'NONE', #144, #74, #78 ) ;
#143 = CC_DESIGN_PERSON_AND_ORGANIZATION_ASSIGNMENT ( #88, #173, ( #124 ) ) ;
#144 = CARTESIAN_POINT ( 'NONE',  ( 0.000000000000000000, 0.000000000000000000, 5.000000000000000000 ) ) ;
#145 = LINE ( 'NONE', #250, #12 ) ;
#146 = CARTESIAN_POINT ( 'NONE',  ( 0.000000000000000000, 0.000000000000000000, 205.0000000000000284 ) ) ;
#147 = CARTESIAN_POINT ( 'NONE',  ( -8.000000000000000000, 0.000000000000000000, 5.000000000000000000 ) ) ;
#148 = DIRECTION ( 'NONE',  ( 1.000000000000000000, 0.000000000000000000, 0.000000000000000000 ) ) ;
#149 = CLOSED_SHELL ( 'NONE', ( #194, #106, #172, #125, #31, #67, #233 ) ) ;
#150 = CARTESIAN_POINT ( 'NONE',  ( 0.000000000000000000, 0.000000000000000000, 5.000000000000000000 ) ) ;
#151 = ORIENTED_EDGE ( 'NONE', *, *, #60, .F. ) ;
#152 = DATE_AND_TIME ( #127, #32 ) ;
#153 = PERSON_AND_ORGANIZATION_ROLE ( 'creator' ) ;
#154 = APPROVAL_ROLE ( '' ) ;
#155 = AXIS2_PLACEMENT_3D ( 'NONE', #37, #113, #94 ) ;
#156 = CC_DESIGN_SECURITY_CLASSIFICATION ( #133, ( #17 ) ) ;
#157 = DATE_TIME_ROLE ( 'creation_date' ) ;
#158 = VERTEX_POINT ( 'NONE', #227 ) ;
#159 = EDGE_CURVE ( 'NONE', #204, #222, #93, .T. ) ;
#160 = CYLINDRICAL_SURFACE ( 'NONE', #132, 8.000000000000000000 ) ;
#161 = LINE ( 'NONE', #190, #129 ) ;
#162 = ORIENTED_EDGE ( 'NONE', *, *, #212, .T. ) ;
#163 = EDGE_LOOP ( 'NONE', ( #24, #207 ) ) ;
#164 =( NAMED_UNIT ( * ) PLANE_ANGLE_UNIT ( ) SI_UNIT ( $, .RADIAN. ) );
#165 = CARTESIAN_POINT ( 'NONE',  ( 0.000000000000000000, 0.000000000000000000, 0.000000000000000000 ) ) ;
#166 = MECHANICAL_CONTEXT ( 'NONE', #87, 'mechanical' ) ;
#167 = PLANE ( 'NONE',  #99 ) ;
#168 = APPROVAL_PERSON_ORGANIZATION ( #135, #35, #13 ) ;
#169 = DIRECTION ( 'NONE',  ( 1.000000000000000000, 0.000000000000000000, 0.000000000000000000 ) ) ;
#170 = EDGE_CURVE ( 'NONE', #140, #204, #108, .T. ) ;
#171 = AXIS2_PLACEMENT_3D ( 'NONE', #55, #221, #6 ) ;
#172 = ADVANCED_FACE ( 'NONE', ( #71 ), #160, .T. ) ;
#173 = PERSON_AND_ORGANIZATION_ROLE ( 'design_owner' ) ;
#174 = EDGE_LOOP ( 'NONE', ( #251, #226, #162, #96 ) ) ;
#175 = LOCAL_TIME ( 19, 24, 28.00000000000000000, #197 ) ;
#176 = DATE_AND_TIME ( #215, #10 ) ;
#177 = PERSON ( 'NEURÈENÝ', 'NEURÈENÝ', 'NEURÈENÝ', ('NEURÈENÝ'), ('NEURÈENÝ'), ('NEURÈENÝ') ) ;
#178 = COORDINATED_UNIVERSAL_TIME_OFFSET ( 1, 0, .AHEAD. ) ;
#179 = CIRCLE ( 'NONE', #122, 5.250000000000000000 ) ;
#180 = CC_DESIGN_APPROVAL ( #82, ( #133 ) ) ;
#181 =( LENGTH_UNIT ( ) NAMED_UNIT ( * ) SI_UNIT ( .MILLI., .METRE. ) );
#182 = ORIENTED_EDGE ( 'NONE', *, *, #91, .T. ) ;
#183 = CARTESIAN_POINT ( 'NONE',  ( 0.000000000000000000, 0.000000000000000000, 5.000000000000000000 ) ) ;
#184 = CARTESIAN_POINT ( 'NONE',  ( -5.250000000000000000, 0.000000000000000000, 205.0000000000000284 ) ) ;
#185 = DIRECTION ( 'NONE',  ( 0.000000000000000000, 0.000000000000000000, 1.000000000000000000 ) ) ;
#186 = CIRCLE ( 'NONE', #201, 8.000000000000000000 ) ;
#187 = FACE_BOUND ( 'NONE', #103, .T. ) ;
#188 = DIRECTION ( 'NONE',  ( 0.000000000000000000, 0.000000000000000000, 1.000000000000000000 ) ) ;
#189 = CC_DESIGN_DATE_AND_TIME_ASSIGNMENT ( #238, #157, ( #224 ) ) ;
#190 = CARTESIAN_POINT ( 'NONE',  ( -5.250000000000000000, 0.000000000000000000, 205.0000000000000284 ) ) ;
#191 = ORIENTED_EDGE ( 'NONE', *, *, #214, .T. ) ;
#192 = ORIENTED_EDGE ( 'NONE', *, *, #212, .F. ) ;
#193 = EDGE_LOOP ( 'NONE', ( #62, #40, #116, #47 ) ) ;
#194 = ADVANCED_FACE ( 'NONE', ( #5 ), #27, .T. ) ;
#195 = VERTEX_POINT ( 'NONE', #219 ) ;
#196 = AXIS2_PLACEMENT_3D ( 'NONE', #117, #185, #77 ) ;
#197 = COORDINATED_UNIVERSAL_TIME_OFFSET ( 1, 0, .AHEAD. ) ;
#198 = PRODUCT_RELATED_PRODUCT_CATEGORY ( 'detail', '', ( #124 ) ) ;
#199 = PERSON_AND_ORGANIZATION ( #177, #49 ) ;
#200 = PERSON_AND_ORGANIZATION ( #177, #49 ) ;
#201 = AXIS2_PLACEMENT_3D ( 'NONE', #165, #119, #169 ) ;
#202 = CARTESIAN_POINT ( 'NONE',  ( 8.000000000000000000, 9.797174393178825657E-16, 5.000000000000000000 ) ) ;
#203 = DIRECTION ( 'NONE',  ( -0.000000000000000000, -0.000000000000000000, -1.000000000000000000 ) ) ;
#204 = VERTEX_POINT ( 'NONE', #202 ) ;
#205 = CARTESIAN_POINT ( 'NONE',  ( 0.000000000000000000, 0.000000000000000000, 5.000000000000000000 ) ) ;
#206 = VECTOR ( 'NONE', #139, 1000.000000000000000 ) ;
#207 = ORIENTED_EDGE ( 'NONE', *, *, #110, .F. ) ;
#208 = CARTESIAN_POINT ( 'NONE',  ( 0.000000000000000000, 0.000000000000000000, 205.0000000000000284 ) ) ;
#209 = DIRECTION ( 'NONE',  ( -1.000000000000000000, 0.000000000000000000, 0.000000000000000000 ) ) ;
#210 = FACE_OUTER_BOUND ( 'NONE', #57, .T. ) ;
#211 = DIRECTION ( 'NONE',  ( 0.000000000000000000, 0.000000000000000000, 1.000000000000000000 ) ) ;
#212 = EDGE_CURVE ( 'NONE', #235, #253, #179, .T. ) ;
#213 = APPROVAL_STATUS ( 'not_yet_approved' ) ;
#214 = EDGE_CURVE ( 'NONE', #253, #235, #15, .T. ) ;
#215 = CALENDAR_DATE ( 2022, 7, 7 ) ;
#216 = CIRCLE ( 'NONE', #26, 5.250000000000000000 ) ;
#217 = CARTESIAN_POINT ( 'NONE',  ( 5.250000000000000000, 6.429395695523604153E-16, 5.000000000000000000 ) ) ;
#218 = EDGE_LOOP ( 'NONE', ( #34, #182 ) ) ;
#219 = CARTESIAN_POINT ( 'NONE',  ( -8.000000000000000000, 0.000000000000000000, 0.000000000000000000 ) ) ;
#220 = MANIFOLD_SOLID_BREP ( 'Pøidat vysunutím3', #149 ) ;
#221 = DIRECTION ( 'NONE',  ( 0.000000000000000000, 0.000000000000000000, 1.000000000000000000 ) ) ;
#222 = VERTEX_POINT ( 'NONE', #18 ) ;
#223 = FACE_OUTER_BOUND ( 'NONE', #231, .T. ) ;
#224 = PRODUCT_DEFINITION ( 'NEZNÁMÝ', '', #17, #73 ) ;
#225 = DIRECTION ( 'NONE',  ( 1.000000000000000000, 0.000000000000000000, 0.000000000000000000 ) ) ;
#226 = ORIENTED_EDGE ( 'NONE', *, *, #230, .T. ) ;
#227 = CARTESIAN_POINT ( 'NONE',  ( 5.250000000000000000, 6.429395695523604153E-16, 205.0000000000000284 ) ) ;
#228 = DIRECTION ( 'NONE',  ( -1.000000000000000000, 0.000000000000000000, 0.000000000000000000 ) ) ;
#229 = CARTESIAN_POINT ( 'NONE',  ( 0.000000000000000000, 0.000000000000000000, 5.000000000000000000 ) ) ;
#230 = EDGE_CURVE ( 'NONE', #158, #235, #7, .T. ) ;
#231 = EDGE_LOOP ( 'NONE', ( #19, #65, #56, #191 ) ) ;
#232 = APPLICATION_PROTOCOL_DEFINITION ( 'international standard', 'config_control_design', 1994, #126 ) ;
#233 = ADVANCED_FACE ( 'NONE', ( #75 ), #22, .T. ) ;
#234 = COORDINATED_UNIVERSAL_TIME_OFFSET ( 1, 0, .AHEAD. ) ;
#235 = VERTEX_POINT ( 'NONE', #217 ) ;
#236 = DATE_AND_TIME ( #64, #247 ) ;
#237 = EDGE_CURVE ( 'NONE', #158, #46, #89, .T. ) ;
#238 = DATE_AND_TIME ( #255, #58 ) ;
#239 = SECURITY_CLASSIFICATION_LEVEL ( 'unclassified' ) ;
#240 = PRODUCT_DEFINITION_SHAPE ( 'NONE', 'NONE',  #224 ) ;
#241 = CC_DESIGN_PERSON_AND_ORGANIZATION_ASSIGNMENT ( #33, #153, ( #224 ) ) ;
#242 = CARTESIAN_POINT ( 'NONE',  ( 0.000000000000000000, 0.000000000000000000, 5.000000000000000000 ) ) ;
#243 = CARTESIAN_POINT ( 'NONE',  ( 0.000000000000000000, 0.000000000000000000, 205.0000000000000284 ) ) ;
#244 =( NAMED_UNIT ( * ) SI_UNIT ( $, .STERADIAN. ) SOLID_ANGLE_UNIT ( ) );
#245 = APPROVAL ( #109, 'NEURÈENÝ' ) ;
#246 = CARTESIAN_POINT ( 'NONE',  ( 0.000000000000000000, 0.000000000000000000, 0.000000000000000000 ) ) ;
#247 = LOCAL_TIME ( 19, 24, 28.00000000000000000, #66 ) ;
#248 = APPROVAL_PERSON_ORGANIZATION ( #199, #82, #154 ) ;
#249 = DIRECTION ( 'NONE',  ( 1.000000000000000000, 0.000000000000000000, -0.000000000000000000 ) ) ;
#250 = CARTESIAN_POINT ( 'NONE',  ( -8.000000000000000000, 0.000000000000000000, 5.000000000000000000 ) ) ;
#251 = ORIENTED_EDGE ( 'NONE', *, *, #237, .F. ) ;
#252 = SHAPE_DEFINITION_REPRESENTATION ( #240, #23 ) ;
#253 = VERTEX_POINT ( 'NONE', #92 ) ;
#254 = APPROVAL_ROLE ( '' ) ;
#255 = CALENDAR_DATE ( 2022, 7, 7 ) ;
ENDSEC;
END-ISO-10303-21;
