ISO-10303-21;
HEADER;
FILE_DESCRIPTION (( 'STEP AP203' ),
    '1' );
FILE_NAME ('17d7.STEP',
    '2023-02-13T11:37:02',
    ( '' ),
    ( '' ),
    'SwSTEP 2.0',
    'SolidWorks 2019',
    '' );
FILE_SCHEMA (( 'CONFIG_CONTROL_DESIGN' ));
ENDSEC;

DATA;
#1 = AXIS2_PLACEMENT_3D ( 'NONE', #41, #105, #185 ) ;
#2 = ORIENTED_EDGE ( 'NONE', *, *, #56, .F. ) ;
#3 = DIRECTION ( 'NONE',  ( 1.000000000000000000, 0.000000000000000000, -0.000000000000000000 ) ) ;
#4 = CIRCLE ( 'NONE', #203, 6.250000000000000000 ) ;
#5 = APPROVAL_DATE_TIME ( #115, #7 ) ;
#6 = LOCAL_TIME ( 12, 37, 2.000000000000000000, #72 ) ;
#7 = APPROVAL ( #23, 'NEURÈENÝ' ) ;
#8 = CARTESIAN_POINT ( 'NONE',  ( -6.250000000000000000, 0.000000000000000000, 500.0000000000000000 ) ) ;
#9 = PERSON_AND_ORGANIZATION_ROLE ( 'design_supplier' ) ;
#10 = DIRECTION ( 'NONE',  ( 1.000000000000000000, 0.000000000000000000, 0.000000000000000000 ) ) ;
#11 = PLANE ( 'NONE',  #52 ) ;
#12 = VERTEX_POINT ( 'NONE', #62 ) ;
#13 = APPLICATION_CONTEXT ( 'configuration controlled 3d designs of mechanical parts and assemblies' ) ;
#14 = EDGE_LOOP ( 'NONE', ( #136, #2, #59, #240 ) ) ;
#15 = LINE ( 'NONE', #140, #44 ) ;
#16 = ADVANCED_FACE ( 'NONE', ( #146, #128 ), #243, .T. ) ;
#17 = ORIENTED_EDGE ( 'NONE', *, *, #165, .T. ) ;
#18 = AXIS2_PLACEMENT_3D ( 'NONE', #249, #159, #231 ) ;
#19 = AXIS2_PLACEMENT_3D ( 'NONE', #26, #69, #49 ) ;
#20 = UNCERTAINTY_MEASURE_WITH_UNIT (LENGTH_MEASURE( 1.000000000000000082E-05 ), #29, 'distance_accuracy_value', 'NONE');
#21 = COORDINATED_UNIVERSAL_TIME_OFFSET ( 1, 0, .AHEAD. ) ;
#22 = ORIENTED_EDGE ( 'NONE', *, *, #68, .F. ) ;
#23 = APPROVAL_STATUS ( 'not_yet_approved' ) ;
#24 = APPROVAL_ROLE ( '' ) ;
#25 = CARTESIAN_POINT ( 'NONE',  ( 0.000000000000000000, 0.000000000000000000, 7.000000000000000000 ) ) ;
#26 = CARTESIAN_POINT ( 'NONE',  ( 0.000000000000000000, 0.000000000000000000, 0.000000000000000000 ) ) ;
#27 = CARTESIAN_POINT ( 'NONE',  ( 0.000000000000000000, 0.000000000000000000, 500.0000000000000000 ) ) ;
#28 = LOCAL_TIME ( 12, 37, 2.000000000000000000, #67 ) ;
#29 =( LENGTH_UNIT ( ) NAMED_UNIT ( * ) SI_UNIT ( .MILLI., .METRE. ) );
#30 = EDGE_CURVE ( 'NONE', #102, #255, #36, .T. ) ;
#31 = EDGE_LOOP ( 'NONE', ( #22, #76, #120, #79 ) ) ;
#32 = DIRECTION ( 'NONE',  ( -0.000000000000000000, -0.000000000000000000, -1.000000000000000000 ) ) ;
#33 =( NAMED_UNIT ( * ) SI_UNIT ( $, .STERADIAN. ) SOLID_ANGLE_UNIT ( ) );
#34 = ORIENTED_EDGE ( 'NONE', *, *, #234, .F. ) ;
#35 = VERTEX_POINT ( 'NONE', #39 ) ;
#36 = CIRCLE ( 'NONE', #192, 6.250000000000000000 ) ;
#37 = CARTESIAN_POINT ( 'NONE',  ( 0.000000000000000000, 0.000000000000000000, 0.000000000000000000 ) ) ;
#38 = VERTEX_POINT ( 'NONE', #223 ) ;
#39 = CARTESIAN_POINT ( 'NONE',  ( -9.000000000000000000, 0.000000000000000000, 7.000000000000000000 ) ) ;
#40 = DIRECTION ( 'NONE',  ( 1.000000000000000000, 0.000000000000000000, 0.000000000000000000 ) ) ;
#41 = CARTESIAN_POINT ( 'NONE',  ( 0.000000000000000000, 0.000000000000000000, 500.0000000000000000 ) ) ;
#42 = PERSON_AND_ORGANIZATION ( #212, #238 ) ;
#43 = EDGE_LOOP ( 'NONE', ( #124, #215, #198, #202 ) ) ;
#44 = VECTOR ( 'NONE', #57, 1000.000000000000000 ) ;
#45 = PERSON_AND_ORGANIZATION ( #212, #238 ) ;
#46 = PERSON_AND_ORGANIZATION_ROLE ( 'design_owner' ) ;
#47 = PERSON_AND_ORGANIZATION_ROLE ( 'creator' ) ;
#48 = DIRECTION ( 'NONE',  ( 1.000000000000000000, 0.000000000000000000, 0.000000000000000000 ) ) ;
#49 = DIRECTION ( 'NONE',  ( 1.000000000000000000, 0.000000000000000000, 0.000000000000000000 ) ) ;
#50 = CARTESIAN_POINT ( 'NONE',  ( 0.000000000000000000, 0.000000000000000000, 7.000000000000000000 ) ) ;
#51 = CARTESIAN_POINT ( 'NONE',  ( 0.000000000000000000, 0.000000000000000000, 7.000000000000000000 ) ) ;
#52 = AXIS2_PLACEMENT_3D ( 'NONE', #99, #160, #232 ) ;
#53 = ORIENTED_EDGE ( 'NONE', *, *, #30, .T. ) ;
#54 = FACE_OUTER_BOUND ( 'NONE', #163, .T. ) ;
#55 = EDGE_LOOP ( 'NONE', ( #100, #166 ) ) ;
#56 = EDGE_CURVE ( 'NONE', #35, #121, #186, .T. ) ;
#57 = DIRECTION ( 'NONE',  ( -0.000000000000000000, -0.000000000000000000, -1.000000000000000000 ) ) ;
#58 = CARTESIAN_POINT ( 'NONE',  ( 0.000000000000000000, 0.000000000000000000, 0.000000000000000000 ) ) ;
#59 = ORIENTED_EDGE ( 'NONE', *, *, #131, .T. ) ;
#60 = CYLINDRICAL_SURFACE ( 'NONE', #1, 6.250000000000000000 ) ;
#61 = EDGE_CURVE ( 'NONE', #255, #12, #204, .T. ) ;
#62 = CARTESIAN_POINT ( 'NONE',  ( 6.250000000000000000, 7.654042494670957606E-16, 7.000000000000000000 ) ) ;
#63 = DIRECTION ( 'NONE',  ( -0.000000000000000000, -0.000000000000000000, -1.000000000000000000 ) ) ;
#64 = ADVANCED_FACE ( 'NONE', ( #225 ), #60, .T. ) ;
#65 = CARTESIAN_POINT ( 'NONE',  ( 0.000000000000000000, 0.000000000000000000, 7.000000000000000000 ) ) ;
#66 = PERSON_AND_ORGANIZATION_ROLE ( 'creator' ) ;
#67 = COORDINATED_UNIVERSAL_TIME_OFFSET ( 1, 0, .AHEAD. ) ;
#68 = EDGE_CURVE ( 'NONE', #121, #35, #73, .T. ) ;
#69 = DIRECTION ( 'NONE',  ( 0.000000000000000000, 0.000000000000000000, 1.000000000000000000 ) ) ;
#70 = DIRECTION ( 'NONE',  ( -0.000000000000000000, -0.000000000000000000, -1.000000000000000000 ) ) ;
#71 = AXIS2_PLACEMENT_3D ( 'NONE', #58, #251, #218 ) ;
#72 = COORDINATED_UNIVERSAL_TIME_OFFSET ( 1, 0, .AHEAD. ) ;
#73 = CIRCLE ( 'NONE', #217, 9.000000000000000000 ) ;
#74 = EDGE_CURVE ( 'NONE', #12, #181, #107, .T. ) ;
#75 = CARTESIAN_POINT ( 'NONE',  ( -6.250000000000000000, 0.000000000000000000, 500.0000000000000000 ) ) ;
#76 = ORIENTED_EDGE ( 'NONE', *, *, #230, .T. ) ;
#77 = CIRCLE ( 'NONE', #71, 9.000000000000000000 ) ;
#78 = VECTOR ( 'NONE', #70, 1000.000000000000000 ) ;
#79 = ORIENTED_EDGE ( 'NONE', *, *, #131, .F. ) ;
#80 = PRODUCT_DEFINITION_SHAPE ( 'NONE', 'NONE',  #248 ) ;
#81 = CARTESIAN_POINT ( 'NONE',  ( 9.000000000000000000, 1.102182119232617714E-15, 0.000000000000000000 ) ) ;
#82 = CC_DESIGN_APPROVAL ( #125, ( #87 ) ) ;
#83 = CARTESIAN_POINT ( 'NONE',  ( 0.000000000000000000, 0.000000000000000000, 7.000000000000000000 ) ) ;
#84 = ADVANCED_FACE ( 'NONE', ( #133 ), #116, .T. ) ;
#85 = DIRECTION ( 'NONE',  ( 0.000000000000000000, 0.000000000000000000, 1.000000000000000000 ) ) ;
#86 = APPROVAL ( #173, 'NEURÈENÝ' ) ;
#87 = SECURITY_CLASSIFICATION ( '', '', #229 ) ;
#88 = DATE_TIME_ROLE ( 'creation_date' ) ;
#89 = CALENDAR_DATE ( 2023, 13, 2 ) ;
#90 = VECTOR ( 'NONE', #63, 1000.000000000000000 ) ;
#91 = APPROVAL_ROLE ( '' ) ;
#92 = DIRECTION ( 'NONE',  ( 0.000000000000000000, 0.000000000000000000, 1.000000000000000000 ) ) ;
#93 = CARTESIAN_POINT ( 'NONE',  ( -9.000000000000000000, 0.000000000000000000, 7.000000000000000000 ) ) ;
#94 = PERSON_AND_ORGANIZATION_ROLE ( 'classification_officer' ) ;
#95 = FACE_OUTER_BOUND ( 'NONE', #162, .T. ) ;
#96 = CARTESIAN_POINT ( 'NONE',  ( 0.000000000000000000, 0.000000000000000000, 500.0000000000000000 ) ) ;
#97 = FACE_OUTER_BOUND ( 'NONE', #14, .T. ) ;
#98 = CC_DESIGN_PERSON_AND_ORGANIZATION_ASSIGNMENT ( #154, #66, ( #216 ) ) ;
#99 = CARTESIAN_POINT ( 'NONE',  ( 0.000000000000000000, 0.000000000000000000, 0.000000000000000000 ) ) ;
#100 = ORIENTED_EDGE ( 'NONE', *, *, #219, .F. ) ;
#101 = CYLINDRICAL_SURFACE ( 'NONE', #195, 9.000000000000000000 ) ;
#102 = VERTEX_POINT ( 'NONE', #8 ) ;
#103 = PRODUCT_RELATED_PRODUCT_CATEGORY ( 'detail', '', ( #214 ) ) ;
#104 = CIRCLE ( 'NONE', #137, 6.250000000000000000 ) ;
#105 = DIRECTION ( 'NONE',  ( -0.000000000000000000, -0.000000000000000000, -1.000000000000000000 ) ) ;
#106 = APPROVAL_PERSON_ORGANIZATION ( #45, #125, #24 ) ;
#107 = CIRCLE ( 'NONE', #144, 6.250000000000000000 ) ;
#108 = DATE_AND_TIME ( #190, #148 ) ;
#109 = APPLICATION_PROTOCOL_DEFINITION ( 'international standard', 'config_control_design', 1994, #179 ) ;
#110 = DATE_AND_TIME ( #176, #164 ) ;
#111 = CLOSED_SHELL ( 'NONE', ( #64, #84, #254, #16, #239, #196, #155 ) ) ;
#112 = MANIFOLD_SOLID_BREP ( 'Pøidat vysunutím3', #111 ) ;
#113 = PERSON_AND_ORGANIZATION ( #212, #238 ) ;
#114 = DIRECTION ( 'NONE',  ( -0.000000000000000000, -0.000000000000000000, -1.000000000000000000 ) ) ;
#115 = DATE_AND_TIME ( #89, #6 ) ;
#116 = CYLINDRICAL_SURFACE ( 'NONE', #246, 9.000000000000000000 ) ;
#117 = APPROVAL_PERSON_ORGANIZATION ( #247, #7, #91 ) ;
#118 = AXIS2_PLACEMENT_3D ( 'NONE', #83, #129, #40 ) ;
#119 = CYLINDRICAL_SURFACE ( 'NONE', #168, 6.250000000000000000 ) ;
#120 = ORIENTED_EDGE ( 'NONE', *, *, #224, .T. ) ;
#121 = VERTEX_POINT ( 'NONE', #152 ) ;
#122 = ADVANCED_BREP_SHAPE_REPRESENTATION ( '17d7', ( #112, #19 ), #191 ) ;
#123 = DIRECTION ( 'NONE',  ( -1.000000000000000000, 0.000000000000000000, 0.000000000000000000 ) ) ;
#124 = ORIENTED_EDGE ( 'NONE', *, *, #139, .F. ) ;
#125 = APPROVAL ( #171, 'NEURÈENÝ' ) ;
#126 = ORIENTED_EDGE ( 'NONE', *, *, #56, .T. ) ;
#127 = VECTOR ( 'NONE', #161, 1000.000000000000000 ) ;
#128 = FACE_OUTER_BOUND ( 'NONE', #180, .T. ) ;
#129 = DIRECTION ( 'NONE',  ( 0.000000000000000000, 0.000000000000000000, 1.000000000000000000 ) ) ;
#130 = DATE_TIME_ROLE ( 'classification_date' ) ;
#131 = EDGE_CURVE ( 'NONE', #35, #38, #175, .T. ) ;
#132 = CALENDAR_DATE ( 2023, 13, 2 ) ;
#133 = FACE_OUTER_BOUND ( 'NONE', #31, .T. ) ;
#134 = PERSON_AND_ORGANIZATION ( #212, #238 ) ;
#135 = CARTESIAN_POINT ( 'NONE',  ( 6.250000000000000000, 7.654042494670957606E-16, 500.0000000000000000 ) ) ;
#136 = ORIENTED_EDGE ( 'NONE', *, *, #230, .F. ) ;
#137 = AXIS2_PLACEMENT_3D ( 'NONE', #27, #157, #10 ) ;
#138 = DIRECTION ( 'NONE',  ( 1.000000000000000000, 0.000000000000000000, 0.000000000000000000 ) ) ;
#139 = EDGE_CURVE ( 'NONE', #255, #102, #104, .T. ) ;
#140 = CARTESIAN_POINT ( 'NONE',  ( 9.000000000000000000, 1.102182119232617714E-15, 7.000000000000000000 ) ) ;
#141 = EDGE_LOOP ( 'NONE', ( #34, #201 ) ) ;
#142 = DIRECTION ( 'NONE',  ( -1.000000000000000000, 0.000000000000000000, 0.000000000000000000 ) ) ;
#143 = CARTESIAN_POINT ( 'NONE',  ( 0.000000000000000000, 0.000000000000000000, 7.000000000000000000 ) ) ;
#144 = AXIS2_PLACEMENT_3D ( 'NONE', #50, #92, #48 ) ;
#145 = DIRECTION ( 'NONE',  ( 0.000000000000000000, 0.000000000000000000, 1.000000000000000000 ) ) ;
#146 = FACE_BOUND ( 'NONE', #141, .T. ) ;
#147 = CC_DESIGN_DATE_AND_TIME_ASSIGNMENT ( #228, #88, ( #248 ) ) ;
#148 = LOCAL_TIME ( 12, 37, 2.000000000000000000, #21 ) ;
#149 = CARTESIAN_POINT ( 'NONE',  ( 0.000000000000000000, 0.000000000000000000, 7.000000000000000000 ) ) ;
#150 = AXIS2_PLACEMENT_3D ( 'NONE', #149, #206, #3 ) ;
#151 = CC_DESIGN_PERSON_AND_ORGANIZATION_ASSIGNMENT ( #174, #9, ( #216 ) ) ;
#152 = CARTESIAN_POINT ( 'NONE',  ( 9.000000000000000000, 1.102182119232617714E-15, 7.000000000000000000 ) ) ;
#153 = CALENDAR_DATE ( 2023, 13, 2 ) ;
#154 = PERSON_AND_ORGANIZATION ( #212, #238 ) ;
#155 = ADVANCED_FACE ( 'NONE', ( #95 ), #177, .T. ) ;
#156 = APPROVAL_DATE_TIME ( #158, #86 ) ;
#157 = DIRECTION ( 'NONE',  ( 0.000000000000000000, 0.000000000000000000, 1.000000000000000000 ) ) ;
#158 = DATE_AND_TIME ( #153, #222 ) ;
#159 = DIRECTION ( 'NONE',  ( 0.000000000000000000, 0.000000000000000000, 1.000000000000000000 ) ) ;
#160 = DIRECTION ( 'NONE',  ( 0.000000000000000000, 0.000000000000000000, 1.000000000000000000 ) ) ;
#161 = DIRECTION ( 'NONE',  ( -0.000000000000000000, -0.000000000000000000, -1.000000000000000000 ) ) ;
#162 = EDGE_LOOP ( 'NONE', ( #53, #211 ) ) ;
#163 = EDGE_LOOP ( 'NONE', ( #213, #235, #17, #182 ) ) ;
#164 = LOCAL_TIME ( 12, 37, 2.000000000000000000, #193 ) ;
#165 = EDGE_CURVE ( 'NONE', #102, #181, #227, .T. ) ;
#166 = ORIENTED_EDGE ( 'NONE', *, *, #224, .F. ) ;
#167 = DESIGN_CONTEXT ( 'detailed design', #179, 'design' ) ;
#168 = AXIS2_PLACEMENT_3D ( 'NONE', #96, #32, #123 ) ;
#169 = CC_DESIGN_PERSON_AND_ORGANIZATION_ASSIGNMENT ( #113, #94, ( #87 ) ) ;
#170 = SHAPE_DEFINITION_REPRESENTATION ( #80, #122 ) ;
#171 = APPROVAL_STATUS ( 'not_yet_approved' ) ;
#172 = AXIS2_PLACEMENT_3D ( 'NONE', #37, #178, #233 ) ;
#173 = APPROVAL_STATUS ( 'not_yet_approved' ) ;
#174 = PERSON_AND_ORGANIZATION ( #212, #238 ) ;
#175 = LINE ( 'NONE', #93, #78 ) ;
#176 = CALENDAR_DATE ( 2023, 13, 2 ) ;
#177 = PLANE ( 'NONE',  #18 ) ;
#178 = DIRECTION ( 'NONE',  ( 0.000000000000000000, 0.000000000000000000, 1.000000000000000000 ) ) ;
#179 = APPLICATION_CONTEXT ( 'configuration controlled 3d designs of mechanical parts and assemblies' ) ;
#180 = EDGE_LOOP ( 'NONE', ( #126, #237 ) ) ;
#181 = VERTEX_POINT ( 'NONE', #236 ) ;
#182 = ORIENTED_EDGE ( 'NONE', *, *, #234, .T. ) ;
#183 = VERTEX_POINT ( 'NONE', #81 ) ;
#184 = CC_DESIGN_APPROVAL ( #7, ( #248 ) ) ;
#185 = DIRECTION ( 'NONE',  ( -1.000000000000000000, 0.000000000000000000, 0.000000000000000000 ) ) ;
#186 = CIRCLE ( 'NONE', #118, 9.000000000000000000 ) ;
#187 = APPROVAL_DATE_TIME ( #108, #125 ) ;
#188 = CARTESIAN_POINT ( 'NONE',  ( 0.000000000000000000, 0.000000000000000000, 500.0000000000000000 ) ) ;
#189 = CC_DESIGN_PERSON_AND_ORGANIZATION_ASSIGNMENT ( #245, #46, ( #214 ) ) ;
#190 = CALENDAR_DATE ( 2023, 13, 2 ) ;
#191 =( GEOMETRIC_REPRESENTATION_CONTEXT ( 3 ) GLOBAL_UNCERTAINTY_ASSIGNED_CONTEXT ( ( #20 ) ) GLOBAL_UNIT_ASSIGNED_CONTEXT ( ( #29, #252, #33 ) ) REPRESENTATION_CONTEXT ( 'NONE', 'WORKASPACE' ) );
#192 = AXIS2_PLACEMENT_3D ( 'NONE', #188, #85, #221 ) ;
#193 = COORDINATED_UNIVERSAL_TIME_OFFSET ( 1, 0, .AHEAD. ) ;
#194 = DIRECTION ( 'NONE',  ( -1.000000000000000000, 0.000000000000000000, 0.000000000000000000 ) ) ;
#195 = AXIS2_PLACEMENT_3D ( 'NONE', #51, #200, #142 ) ;
#196 = ADVANCED_FACE ( 'NONE', ( #54 ), #119, .T. ) ;
#197 = DIRECTION ( 'NONE',  ( 0.000000000000000000, 0.000000000000000000, 1.000000000000000000 ) ) ;
#198 = ORIENTED_EDGE ( 'NONE', *, *, #74, .T. ) ;
#199 = APPROVAL_PERSON_ORGANIZATION ( #134, #86, #226 ) ;
#200 = DIRECTION ( 'NONE',  ( -0.000000000000000000, -0.000000000000000000, -1.000000000000000000 ) ) ;
#201 = ORIENTED_EDGE ( 'NONE', *, *, #74, .F. ) ;
#202 = ORIENTED_EDGE ( 'NONE', *, *, #165, .F. ) ;
#203 = AXIS2_PLACEMENT_3D ( 'NONE', #143, #197, #138 ) ;
#204 = LINE ( 'NONE', #242, #90 ) ;
#205 = APPLICATION_PROTOCOL_DEFINITION ( 'international standard', 'config_control_design', 1994, #13 ) ;
#206 = DIRECTION ( 'NONE',  ( 0.000000000000000000, 0.000000000000000000, 1.000000000000000000 ) ) ;
#207 = CC_DESIGN_APPROVAL ( #86, ( #216 ) ) ;
#208 = COORDINATED_UNIVERSAL_TIME_OFFSET ( 1, 0, .AHEAD. ) ;
#209 = MECHANICAL_CONTEXT ( 'NONE', #13, 'mechanical' ) ;
#210 = CC_DESIGN_PERSON_AND_ORGANIZATION_ASSIGNMENT ( #42, #47, ( #248 ) ) ;
#211 = ORIENTED_EDGE ( 'NONE', *, *, #139, .T. ) ;
#212 = PERSON ( 'NEURÈENÝ', 'NEURÈENÝ', 'NEURÈENÝ', ('NEURÈENÝ'), ('NEURÈENÝ'), ('NEURÈENÝ') ) ;
#213 = ORIENTED_EDGE ( 'NONE', *, *, #61, .F. ) ;
#214 = PRODUCT ( '17d7', '17d7', '', ( #209 ) ) ;
#215 = ORIENTED_EDGE ( 'NONE', *, *, #61, .T. ) ;
#216 = PRODUCT_DEFINITION_FORMATION_WITH_SPECIFIED_SOURCE ( 'LIBOVOLNÝ', '', #214, .NOT_KNOWN. ) ;
#217 = AXIS2_PLACEMENT_3D ( 'NONE', #65, #145, #220 ) ;
#218 = DIRECTION ( 'NONE',  ( 1.000000000000000000, 0.000000000000000000, 0.000000000000000000 ) ) ;
#219 = EDGE_CURVE ( 'NONE', #38, #183, #77, .T. ) ;
#220 = DIRECTION ( 'NONE',  ( 1.000000000000000000, 0.000000000000000000, 0.000000000000000000 ) ) ;
#221 = DIRECTION ( 'NONE',  ( 1.000000000000000000, 0.000000000000000000, 0.000000000000000000 ) ) ;
#222 = LOCAL_TIME ( 12, 37, 2.000000000000000000, #208 ) ;
#223 = CARTESIAN_POINT ( 'NONE',  ( -9.000000000000000000, 0.000000000000000000, 0.000000000000000000 ) ) ;
#224 = EDGE_CURVE ( 'NONE', #183, #38, #244, .T. ) ;
#225 = FACE_OUTER_BOUND ( 'NONE', #43, .T. ) ;
#226 = APPROVAL_ROLE ( '' ) ;
#227 = LINE ( 'NONE', #75, #127 ) ;
#228 = DATE_AND_TIME ( #132, #28 ) ;
#229 = SECURITY_CLASSIFICATION_LEVEL ( 'unclassified' ) ;
#230 = EDGE_CURVE ( 'NONE', #121, #183, #15, .T. ) ;
#231 = DIRECTION ( 'NONE',  ( 1.000000000000000000, 0.000000000000000000, -0.000000000000000000 ) ) ;
#232 = DIRECTION ( 'NONE',  ( 1.000000000000000000, 0.000000000000000000, -0.000000000000000000 ) ) ;
#233 = DIRECTION ( 'NONE',  ( 1.000000000000000000, 0.000000000000000000, 0.000000000000000000 ) ) ;
#234 = EDGE_CURVE ( 'NONE', #181, #12, #4, .T. ) ;
#235 = ORIENTED_EDGE ( 'NONE', *, *, #30, .F. ) ;
#236 = CARTESIAN_POINT ( 'NONE',  ( -6.250000000000000000, 0.000000000000000000, 7.000000000000000000 ) ) ;
#237 = ORIENTED_EDGE ( 'NONE', *, *, #68, .T. ) ;
#238 = ORGANIZATION ( 'NEURÈENÝ', 'NEURÈENÝ', '' ) ;
#239 = ADVANCED_FACE ( 'NONE', ( #250 ), #11, .F. ) ;
#240 = ORIENTED_EDGE ( 'NONE', *, *, #219, .T. ) ;
#241 = CC_DESIGN_DATE_AND_TIME_ASSIGNMENT ( #110, #130, ( #87 ) ) ;
#242 = CARTESIAN_POINT ( 'NONE',  ( 6.250000000000000000, 7.654042494670957606E-16, 500.0000000000000000 ) ) ;
#243 = PLANE ( 'NONE',  #150 ) ;
#244 = CIRCLE ( 'NONE', #172, 9.000000000000000000 ) ;
#245 = PERSON_AND_ORGANIZATION ( #212, #238 ) ;
#246 = AXIS2_PLACEMENT_3D ( 'NONE', #25, #114, #194 ) ;
#247 = PERSON_AND_ORGANIZATION ( #212, #238 ) ;
#248 = PRODUCT_DEFINITION ( 'NEZNÁMÝ', '', #216, #167 ) ;
#249 = CARTESIAN_POINT ( 'NONE',  ( 0.000000000000000000, 0.000000000000000000, 500.0000000000000000 ) ) ;
#250 = FACE_OUTER_BOUND ( 'NONE', #55, .T. ) ;
#251 = DIRECTION ( 'NONE',  ( 0.000000000000000000, 0.000000000000000000, 1.000000000000000000 ) ) ;
#252 =( NAMED_UNIT ( * ) PLANE_ANGLE_UNIT ( ) SI_UNIT ( $, .RADIAN. ) );
#253 = CC_DESIGN_SECURITY_CLASSIFICATION ( #87, ( #216 ) ) ;
#254 = ADVANCED_FACE ( 'NONE', ( #97 ), #101, .T. ) ;
#255 = VERTEX_POINT ( 'NONE', #135 ) ;
ENDSEC;
END-ISO-10303-21;
